999
Inkscape export via "Better DXF Output" (bob@bobcookdev.com)
  0
SECTION
  2
HEADER
  9
$ACADVER
  1
AC1014
  9
$HANDSEED
  5
FFFF
  0
ENDSEC
  0
SECTION
  2
TABLES
  0
TABLE
  2
VPORT
  5
8
330
0
100
AcDbSymbolTable
 70
     4
  0
VPORT
  5
2E
330
8
100
AcDbSymbolTableRecord
100
AcDbViewportTableRecord
  2
*ACTIVE
 70
     0
 10
0.0
 20
0.0
 11
1.0
 21
1.0
 12
4.25
 22
5.5
 13
0.0
 23
0.0
 14
10.0
 24
10.0
 15
10.0
 25
10.0
 16
0.0
 26
0.0
 36
1.0
 17
0.0
 27
0.0
 37
0.0
 40
11
 41
1.24
 42
50.0
 43
0.0
 44
0.0
 50
0.0
 51
0.0
 71
     0
 72
   100
 73
     1
 74
     3
 75
     0
 76
     0
 77
     0
 78
     0
  0
ENDTAB
  0
TABLE
  2
LTYPE
  5
5
330
0
100
AcDbSymbolTable
 70
     1
  0
LTYPE
  5
14
330
5
100
AcDbSymbolTableRecord
100
AcDbLinetypeTableRecord
  2
BYBLOCK
 70
     0
  3

 72
    65
 73
     0
 40
0.0
  0
LTYPE
  5
15
330
5
100
AcDbSymbolTableRecord
100
AcDbLinetypeTableRecord
  2
BYLAYER
 70
     0
  3

 72
    65
 73
     0
 40
0.0
  0
LTYPE
  5
16
330
5
100
AcDbSymbolTableRecord
100
AcDbLinetypeTableRecord
  2
CONTINUOUS
 70
     0
  3
Solid line
 72
    65
 73
     0
 40
0.0
  0
ENDTAB
  0
TABLE
  2
LAYER
  5
2
330
0
100
AcDbSymbolTable
 70
1
  0
LAYER
  5
10
330
2
100
AcDbSymbolTableRecord
100
AcDbLayerTableRecord
  2
0
 70
     0
 62
     7
  6
CONTINUOUS
  0
ENDTAB
  0
TABLE
  2
STYLE
  5
3
330
0
100
AcDbSymbolTable
 70
     1
  0
STYLE
  5
11
330
3
100
AcDbSymbolTableRecord
100
AcDbTextStyleTableRecord
  2
STANDARD
 70
     0
 40
0.0
 41
1.0
 50
0.0
 71
     0
 42
2.5
  3
txt
  4

  0
ENDTAB
  0
TABLE
  2
VIEW
  5
6
330
0
100
AcDbSymbolTable
 70
     0
  0
ENDTAB
  0
TABLE
  2
UCS
  5
7
330
0
100
AcDbSymbolTable
 70
     0
  0
ENDTAB
  0
TABLE
  2
APPID
  5
9
330
0
100
AcDbSymbolTable
 70
     2
  0
APPID
  5
12
330
9
100
AcDbSymbolTableRecord
100
AcDbRegAppTableRecord
  2
ACAD
 70
     0
  0
ENDTAB
  0
TABLE
  2
DIMSTYLE
  5
A
330
0
100
AcDbSymbolTable
 70
     1
  0
DIMSTYLE
105
27
330
A
100
AcDbSymbolTableRecord
100
AcDbDimStyleTableRecord
  2
ISO-25
 70
     0
  3

  4

  5

  6

  7

 40
1.0
 41
2.5
 42
0.625
 43
3.75
 44
1.25
 45
0.0
 46
0.0
 47
0.0
 48
0.0
140
2.5
141
2.5
142
0.0
143
0.03937007874016
144
1.0
145
0.0
146
1.0
147
0.625
 71
     0
 72
     0
 73
     0
 74
     0
 75
     0
 76
     0
 77
     1
 78
     8
170
     0
171
     3
172
     1
173
     0
174
     0
175
     0
176
     0
177
     0
178
     0
270
     2
271
     2
272
     2
273
     2
274
     3
340
11
275
     0
280
     0
281
     0
282
     0
283
     0
284
     8
285
     0
286
     0
287
     3
288
     0
  0
ENDTAB
  0
TABLE
  2
BLOCK_RECORD
  5
1
330
0
100
AcDbSymbolTable
 70
     1
  0
BLOCK_RECORD
  5
1F
330
1
100
AcDbSymbolTableRecord
100
AcDbBlockTableRecord
  2
*MODEL_SPACE
  0
BLOCK_RECORD
  5
1B
330
1
100
AcDbSymbolTableRecord
100
AcDbBlockTableRecord
  2
*PAPER_SPACE
  0
ENDTAB
  0
ENDSEC
  0
SECTION
  2
BLOCKS
  0
BLOCK
  5
20
330
1F
100
AcDbEntity
  8
0
100
AcDbBlockBegin
  2
*MODEL_SPACE
 70
     0
 10
0.0
 20
0.0
 30
0.0
  3
*MODEL_SPACE
  1

  0
ENDBLK
  5
21
330
1F
100
AcDbEntity
  8
0
100
AcDbBlockEnd
  0
BLOCK
  5
1C
330
1B
100
AcDbEntity
 67
     1
  8
0
100
AcDbBlockBegin
  2
*PAPER_SPACE
  1

  0
ENDBLK
  5
1D
330
1B
100
AcDbEntity
 67
     1
  8
0
100
AcDbBlockEnd
  0
ENDSEC
  0
SECTION
  2
ENTITIES
0
LINE
8
Gear20
62
4
5
100
100
AcDbEntity
100
AcDbLine
10
16.099649
20
298.508759
30
0.0
11
16.809720
21
298.575363
31
0.0
0
LINE
8
Gear20
62
4
5
101
100
AcDbEntity
100
AcDbLine
10
16.809720
20
298.575363
30
0.0
11
17.911516
21
298.409699
31
0.0
0
LINE
8
Gear20
62
4
5
102
100
AcDbEntity
100
AcDbLine
10
17.911516
20
298.409699
30
0.0
11
19.753580
21
297.624274
31
0.0
0
LINE
8
Gear20
62
4
5
103
100
AcDbEntity
100
AcDbLine
10
19.753580
20
297.624274
30
0.0
11
19.753580
21
296.375723
31
0.0
0
LINE
8
Gear20
62
4
5
104
100
AcDbEntity
100
AcDbLine
10
19.753580
20
296.375723
30
0.0
11
17.911516
21
295.590299
31
0.0
0
LINE
8
Gear20
62
4
5
105
100
AcDbEntity
100
AcDbLine
10
17.911516
20
295.590299
30
0.0
11
16.809720
21
295.424634
31
0.0
0
LINE
8
Gear20
62
4
5
106
100
AcDbEntity
100
AcDbLine
10
16.809720
20
295.424634
30
0.0
11
16.099649
21
295.491239
31
0.0
0
LINE
8
Gear20
62
4
5
107
100
AcDbEntity
100
AcDbLine
10
16.099649
20
295.491239
30
0.0
11
15.777916
21
293.459803
31
0.0
0
LINE
8
Gear20
62
4
5
108
100
AcDbEntity
100
AcDbLine
10
15.777916
20
293.459803
30
0.0
11
16.473593
21
293.303734
31
0.0
0
LINE
8
Gear20
62
4
5
109
100
AcDbEntity
100
AcDbLine
10
16.473593
20
293.303734
30
0.0
11
17.470402
21
292.805612
31
0.0
0
LINE
8
Gear20
62
4
5
10a
100
AcDbEntity
100
AcDbLine
10
17.470402
20
292.805612
30
0.0
11
18.979727
21
291.489328
31
0.0
0
LINE
8
Gear20
62
4
5
10b
100
AcDbEntity
100
AcDbLine
10
18.979727
20
291.489328
30
0.0
11
18.593929
21
290.302301
31
0.0
0
LINE
8
Gear20
62
4
5
10c
100
AcDbEntity
100
AcDbLine
10
18.593929
20
290.302301
30
0.0
11
16.599182
21
290.124501
31
0.0
0
LINE
8
Gear20
62
4
5
10d
100
AcDbEntity
100
AcDbLine
10
16.599182
20
290.124501
30
0.0
11
15.500209
21
290.307381
31
0.0
0
LINE
8
Gear20
62
4
5
10e
100
AcDbEntity
100
AcDbLine
10
15.500209
20
290.307381
30
0.0
11
14.845453
21
290.589885
31
0.0
0
LINE
8
Gear20
62
4
5
10f
100
AcDbEntity
100
AcDbLine
10
14.845453
20
290.589885
30
0.0
11
13.911580
21
288.757416
31
0.0
0
LINE
8
Gear20
62
4
5
110
100
AcDbEntity
100
AcDbLine
10
13.911580
20
288.757416
30
0.0
11
14.525131
21
288.393914
31
0.0
0
LINE
8
Gear20
62
4
5
111
100
AcDbEntity
100
AcDbLine
10
14.525131
20
288.393914
30
0.0
11
15.319304
21
287.612441
31
0.0
0
LINE
8
Gear20
62
4
5
112
100
AcDbEntity
100
AcDbLine
10
15.319304
20
287.612441
30
0.0
11
16.348004
21
285.893990
31
0.0
0
LINE
8
Gear20
62
4
5
113
100
AcDbEntity
100
AcDbLine
10
16.348004
20
285.893990
30
0.0
11
15.614227
21
284.884199
31
0.0
0
LINE
8
Gear20
62
4
5
114
100
AcDbEntity
100
AcDbLine
10
15.614227
20
284.884199
30
0.0
11
13.662096
21
285.331521
31
0.0
0
LINE
8
Gear20
62
4
5
115
100
AcDbEntity
100
AcDbLine
10
13.662096
20
285.331521
30
0.0
11
12.673189
21
285.845165
31
0.0
0
LINE
8
Gear20
62
4
5
116
100
AcDbEntity
100
AcDbLine
10
12.673189
20
285.845165
30
0.0
11
12.138096
21
286.316194
31
0.0
0
LINE
8
Gear20
62
4
5
117
100
AcDbEntity
100
AcDbLine
10
12.138096
20
286.316194
30
0.0
11
10.683804
21
284.861903
31
0.0
0
LINE
8
Gear20
62
4
5
118
100
AcDbEntity
100
AcDbLine
10
10.683804
20
284.861903
30
0.0
11
11.154833
21
284.326810
31
0.0
0
LINE
8
Gear20
62
4
5
119
100
AcDbEntity
100
AcDbLine
10
11.154833
20
284.326810
30
0.0
11
11.668478
21
283.337903
31
0.0
0
LINE
8
Gear20
62
4
5
11a
100
AcDbEntity
100
AcDbLine
10
11.668478
20
283.337903
30
0.0
11
12.115800
21
281.385772
31
0.0
0
LINE
8
Gear20
62
4
5
11b
100
AcDbEntity
100
AcDbLine
10
12.115800
20
281.385772
30
0.0
11
11.106009
21
280.651994
31
0.0
0
LINE
8
Gear20
62
4
5
11c
100
AcDbEntity
100
AcDbLine
10
11.106009
20
280.651994
30
0.0
11
9.387558
21
281.680694
31
0.0
0
LINE
8
Gear20
62
4
5
11d
100
AcDbEntity
100
AcDbLine
10
9.387558
20
281.680694
30
0.0
11
8.606084
21
282.474868
31
0.0
0
LINE
8
Gear20
62
4
5
11e
100
AcDbEntity
100
AcDbLine
10
8.606084
20
282.474868
30
0.0
11
8.242582
21
283.088419
31
0.0
0
LINE
8
Gear20
62
4
5
11f
100
AcDbEntity
100
AcDbLine
10
8.242582
20
283.088419
30
0.0
11
6.410113
21
282.154545
31
0.0
0
LINE
8
Gear20
62
4
5
120
100
AcDbEntity
100
AcDbLine
10
6.410113
20
282.154545
30
0.0
11
6.692618
21
281.499790
31
0.0
0
LINE
8
Gear20
62
4
5
121
100
AcDbEntity
100
AcDbLine
10
6.692618
20
281.499790
30
0.0
11
6.875498
21
280.400816
31
0.0
0
LINE
8
Gear20
62
4
5
122
100
AcDbEntity
100
AcDbLine
10
6.875498
20
280.400816
30
0.0
11
6.697698
21
278.406070
31
0.0
0
LINE
8
Gear20
62
4
5
123
100
AcDbEntity
100
AcDbLine
10
6.697698
20
278.406070
30
0.0
11
5.510671
21
278.020272
31
0.0
0
LINE
8
Gear20
62
4
5
124
100
AcDbEntity
100
AcDbLine
10
5.510671
20
278.020272
30
0.0
11
4.194387
21
279.529596
31
0.0
0
LINE
8
Gear20
62
4
5
125
100
AcDbEntity
100
AcDbLine
10
4.194387
20
279.529596
30
0.0
11
3.696264
21
280.526405
31
0.0
0
LINE
8
Gear20
62
4
5
126
100
AcDbEntity
100
AcDbLine
10
3.696264
20
280.526405
30
0.0
11
3.540196
21
281.222083
31
0.0
0
LINE
8
Gear20
62
4
5
127
100
AcDbEntity
100
AcDbLine
10
3.540196
20
281.222083
30
0.0
11
1.508760
21
280.900350
31
0.0
0
LINE
8
Gear20
62
4
5
128
100
AcDbEntity
100
AcDbLine
10
1.508760
20
280.900350
30
0.0
11
1.575364
21
280.190279
31
0.0
0
LINE
8
Gear20
62
4
5
129
100
AcDbEntity
100
AcDbLine
10
1.575364
20
280.190279
30
0.0
11
1.409700
21
279.088483
31
0.0
0
LINE
8
Gear20
62
4
5
12a
100
AcDbEntity
100
AcDbLine
10
1.409700
20
279.088483
30
0.0
11
0.624276
21
277.246419
31
0.0
0
LINE
8
Gear20
62
4
5
12b
100
AcDbEntity
100
AcDbLine
10
0.624276
20
277.246419
30
0.0
11
-0.624276
21
277.246419
31
0.0
0
LINE
8
Gear20
62
4
5
12c
100
AcDbEntity
100
AcDbLine
10
-0.624276
20
277.246419
30
0.0
11
-1.409700
21
279.088483
31
0.0
0
LINE
8
Gear20
62
4
5
12d
100
AcDbEntity
100
AcDbLine
10
-1.409700
20
279.088483
30
0.0
11
-1.575364
21
280.190279
31
0.0
0
LINE
8
Gear20
62
4
5
12e
100
AcDbEntity
100
AcDbLine
10
-1.575364
20
280.190279
30
0.0
11
-1.508760
21
280.900350
31
0.0
0
LINE
8
Gear20
62
4
5
12f
100
AcDbEntity
100
AcDbLine
10
-1.508760
20
280.900350
30
0.0
11
-3.540196
21
281.222083
31
0.0
0
LINE
8
Gear20
62
4
5
130
100
AcDbEntity
100
AcDbLine
10
-3.540196
20
281.222083
30
0.0
11
-3.696264
21
280.526405
31
0.0
0
LINE
8
Gear20
62
4
5
131
100
AcDbEntity
100
AcDbLine
10
-3.696264
20
280.526405
30
0.0
11
-4.194387
21
279.529596
31
0.0
0
LINE
8
Gear20
62
4
5
132
100
AcDbEntity
100
AcDbLine
10
-4.194387
20
279.529596
30
0.0
11
-5.510671
21
278.020272
31
0.0
0
LINE
8
Gear20
62
4
5
133
100
AcDbEntity
100
AcDbLine
10
-5.510671
20
278.020272
30
0.0
11
-6.697698
21
278.406070
31
0.0
0
LINE
8
Gear20
62
4
5
134
100
AcDbEntity
100
AcDbLine
10
-6.697698
20
278.406070
30
0.0
11
-6.875498
21
280.400816
31
0.0
0
LINE
8
Gear20
62
4
5
135
100
AcDbEntity
100
AcDbLine
10
-6.875498
20
280.400816
30
0.0
11
-6.692618
21
281.499790
31
0.0
0
LINE
8
Gear20
62
4
5
136
100
AcDbEntity
100
AcDbLine
10
-6.692618
20
281.499790
30
0.0
11
-6.410113
21
282.154545
31
0.0
0
LINE
8
Gear20
62
4
5
137
100
AcDbEntity
100
AcDbLine
10
-6.410113
20
282.154545
30
0.0
11
-8.242582
21
283.088419
31
0.0
0
LINE
8
Gear20
62
4
5
138
100
AcDbEntity
100
AcDbLine
10
-8.242582
20
283.088419
30
0.0
11
-8.606084
21
282.474868
31
0.0
0
LINE
8
Gear20
62
4
5
139
100
AcDbEntity
100
AcDbLine
10
-8.606084
20
282.474868
30
0.0
11
-9.387558
21
281.680694
31
0.0
0
LINE
8
Gear20
62
4
5
13a
100
AcDbEntity
100
AcDbLine
10
-9.387558
20
281.680694
30
0.0
11
-11.106009
21
280.651994
31
0.0
0
LINE
8
Gear20
62
4
5
13b
100
AcDbEntity
100
AcDbLine
10
-11.106009
20
280.651994
30
0.0
11
-12.115800
21
281.385772
31
0.0
0
LINE
8
Gear20
62
4
5
13c
100
AcDbEntity
100
AcDbLine
10
-12.115800
20
281.385772
30
0.0
11
-11.668478
21
283.337903
31
0.0
0
LINE
8
Gear20
62
4
5
13d
100
AcDbEntity
100
AcDbLine
10
-11.668478
20
283.337903
30
0.0
11
-11.154833
21
284.326810
31
0.0
0
LINE
8
Gear20
62
4
5
13e
100
AcDbEntity
100
AcDbLine
10
-11.154833
20
284.326810
30
0.0
11
-10.683804
21
284.861903
31
0.0
0
LINE
8
Gear20
62
4
5
13f
100
AcDbEntity
100
AcDbLine
10
-10.683804
20
284.861903
30
0.0
11
-12.138096
21
286.316194
31
0.0
0
LINE
8
Gear20
62
4
5
140
100
AcDbEntity
100
AcDbLine
10
-12.138096
20
286.316194
30
0.0
11
-12.673189
21
285.845165
31
0.0
0
LINE
8
Gear20
62
4
5
141
100
AcDbEntity
100
AcDbLine
10
-12.673189
20
285.845165
30
0.0
11
-13.662096
21
285.331521
31
0.0
0
LINE
8
Gear20
62
4
5
142
100
AcDbEntity
100
AcDbLine
10
-13.662096
20
285.331521
30
0.0
11
-15.614227
21
284.884199
31
0.0
0
LINE
8
Gear20
62
4
5
143
100
AcDbEntity
100
AcDbLine
10
-15.614227
20
284.884199
30
0.0
11
-16.348004
21
285.893990
31
0.0
0
LINE
8
Gear20
62
4
5
144
100
AcDbEntity
100
AcDbLine
10
-16.348004
20
285.893990
30
0.0
11
-15.319304
21
287.612441
31
0.0
0
LINE
8
Gear20
62
4
5
145
100
AcDbEntity
100
AcDbLine
10
-15.319304
20
287.612441
30
0.0
11
-14.525131
21
288.393914
31
0.0
0
LINE
8
Gear20
62
4
5
146
100
AcDbEntity
100
AcDbLine
10
-14.525131
20
288.393914
30
0.0
11
-13.911580
21
288.757416
31
0.0
0
LINE
8
Gear20
62
4
5
147
100
AcDbEntity
100
AcDbLine
10
-13.911580
20
288.757416
30
0.0
11
-14.845453
21
290.589885
31
0.0
0
LINE
8
Gear20
62
4
5
148
100
AcDbEntity
100
AcDbLine
10
-14.845453
20
290.589885
30
0.0
11
-15.500209
21
290.307381
31
0.0
0
LINE
8
Gear20
62
4
5
149
100
AcDbEntity
100
AcDbLine
10
-15.500209
20
290.307381
30
0.0
11
-16.599182
21
290.124501
31
0.0
0
LINE
8
Gear20
62
4
5
14a
100
AcDbEntity
100
AcDbLine
10
-16.599182
20
290.124501
30
0.0
11
-18.593929
21
290.302301
31
0.0
0
LINE
8
Gear20
62
4
5
14b
100
AcDbEntity
100
AcDbLine
10
-18.593929
20
290.302301
30
0.0
11
-18.979727
21
291.489328
31
0.0
0
LINE
8
Gear20
62
4
5
14c
100
AcDbEntity
100
AcDbLine
10
-18.979727
20
291.489328
30
0.0
11
-17.470402
21
292.805612
31
0.0
0
LINE
8
Gear20
62
4
5
14d
100
AcDbEntity
100
AcDbLine
10
-17.470402
20
292.805612
30
0.0
11
-16.473593
21
293.303734
31
0.0
0
LINE
8
Gear20
62
4
5
14e
100
AcDbEntity
100
AcDbLine
10
-16.473593
20
293.303734
30
0.0
11
-15.777916
21
293.459803
31
0.0
0
LINE
8
Gear20
62
4
5
14f
100
AcDbEntity
100
AcDbLine
10
-15.777916
20
293.459803
30
0.0
11
-16.099649
21
295.491239
31
0.0
0
LINE
8
Gear20
62
4
5
150
100
AcDbEntity
100
AcDbLine
10
-16.099649
20
295.491239
30
0.0
11
-16.809720
21
295.424634
31
0.0
0
LINE
8
Gear20
62
4
5
151
100
AcDbEntity
100
AcDbLine
10
-16.809720
20
295.424634
30
0.0
11
-17.911516
21
295.590299
31
0.0
0
LINE
8
Gear20
62
4
5
152
100
AcDbEntity
100
AcDbLine
10
-17.911516
20
295.590299
30
0.0
11
-19.753580
21
296.375723
31
0.0
0
LINE
8
Gear20
62
4
5
153
100
AcDbEntity
100
AcDbLine
10
-19.753580
20
296.375723
30
0.0
11
-19.753580
21
297.624274
31
0.0
0
LINE
8
Gear20
62
4
5
154
100
AcDbEntity
100
AcDbLine
10
-19.753580
20
297.624274
30
0.0
11
-17.911516
21
298.409699
31
0.0
0
LINE
8
Gear20
62
4
5
155
100
AcDbEntity
100
AcDbLine
10
-17.911516
20
298.409699
30
0.0
11
-16.809720
21
298.575363
31
0.0
0
LINE
8
Gear20
62
4
5
156
100
AcDbEntity
100
AcDbLine
10
-16.809720
20
298.575363
30
0.0
11
-16.099649
21
298.508759
31
0.0
0
LINE
8
Gear20
62
4
5
157
100
AcDbEntity
100
AcDbLine
10
-16.099649
20
298.508759
30
0.0
11
-15.777916
21
300.540194
31
0.0
0
LINE
8
Gear20
62
4
5
158
100
AcDbEntity
100
AcDbLine
10
-15.777916
20
300.540194
30
0.0
11
-16.473593
21
300.696263
31
0.0
0
LINE
8
Gear20
62
4
5
159
100
AcDbEntity
100
AcDbLine
10
-16.473593
20
300.696263
30
0.0
11
-17.470402
21
301.194385
31
0.0
0
LINE
8
Gear20
62
4
5
15a
100
AcDbEntity
100
AcDbLine
10
-17.470402
20
301.194385
30
0.0
11
-18.979727
21
302.510670
31
0.0
0
LINE
8
Gear20
62
4
5
15b
100
AcDbEntity
100
AcDbLine
10
-18.979727
20
302.510670
30
0.0
11
-18.593929
21
303.697696
31
0.0
0
LINE
8
Gear20
62
4
5
15c
100
AcDbEntity
100
AcDbLine
10
-18.593929
20
303.697696
30
0.0
11
-16.599182
21
303.875496
31
0.0
0
LINE
8
Gear20
62
4
5
15d
100
AcDbEntity
100
AcDbLine
10
-16.599182
20
303.875496
30
0.0
11
-15.500209
21
303.692616
31
0.0
0
LINE
8
Gear20
62
4
5
15e
100
AcDbEntity
100
AcDbLine
10
-15.500209
20
303.692616
30
0.0
11
-14.845453
21
303.410112
31
0.0
0
LINE
8
Gear20
62
4
5
15f
100
AcDbEntity
100
AcDbLine
10
-14.845453
20
303.410112
30
0.0
11
-13.911580
21
305.242581
31
0.0
0
LINE
8
Gear20
62
4
5
160
100
AcDbEntity
100
AcDbLine
10
-13.911580
20
305.242581
30
0.0
11
-14.525131
21
305.606083
31
0.0
0
LINE
8
Gear20
62
4
5
161
100
AcDbEntity
100
AcDbLine
10
-14.525131
20
305.606083
30
0.0
11
-15.319304
21
306.387556
31
0.0
0
LINE
8
Gear20
62
4
5
162
100
AcDbEntity
100
AcDbLine
10
-15.319304
20
306.387556
30
0.0
11
-16.348004
21
308.106008
31
0.0
0
LINE
8
Gear20
62
4
5
163
100
AcDbEntity
100
AcDbLine
10
-16.348004
20
308.106008
30
0.0
11
-15.614227
21
309.115799
31
0.0
0
LINE
8
Gear20
62
4
5
164
100
AcDbEntity
100
AcDbLine
10
-15.614227
20
309.115799
30
0.0
11
-13.662096
21
308.668476
31
0.0
0
LINE
8
Gear20
62
4
5
165
100
AcDbEntity
100
AcDbLine
10
-13.662096
20
308.668476
30
0.0
11
-12.673189
21
308.154832
31
0.0
0
LINE
8
Gear20
62
4
5
166
100
AcDbEntity
100
AcDbLine
10
-12.673189
20
308.154832
30
0.0
11
-12.138096
21
307.683803
31
0.0
0
LINE
8
Gear20
62
4
5
167
100
AcDbEntity
100
AcDbLine
10
-12.138096
20
307.683803
30
0.0
11
-10.683804
21
309.138094
31
0.0
0
LINE
8
Gear20
62
4
5
168
100
AcDbEntity
100
AcDbLine
10
-10.683804
20
309.138094
30
0.0
11
-11.154833
21
309.673188
31
0.0
0
LINE
8
Gear20
62
4
5
169
100
AcDbEntity
100
AcDbLine
10
-11.154833
20
309.673188
30
0.0
11
-11.668478
21
310.662094
31
0.0
0
LINE
8
Gear20
62
4
5
16a
100
AcDbEntity
100
AcDbLine
10
-11.668478
20
310.662094
30
0.0
11
-12.115800
21
312.614225
31
0.0
0
LINE
8
Gear20
62
4
5
16b
100
AcDbEntity
100
AcDbLine
10
-12.115800
20
312.614225
30
0.0
11
-11.106009
21
313.348003
31
0.0
0
LINE
8
Gear20
62
4
5
16c
100
AcDbEntity
100
AcDbLine
10
-11.106009
20
313.348003
30
0.0
11
-9.387558
21
312.319303
31
0.0
0
LINE
8
Gear20
62
4
5
16d
100
AcDbEntity
100
AcDbLine
10
-9.387558
20
312.319303
30
0.0
11
-8.606084
21
311.525130
31
0.0
0
LINE
8
Gear20
62
4
5
16e
100
AcDbEntity
100
AcDbLine
10
-8.606084
20
311.525130
30
0.0
11
-8.242582
21
310.911579
31
0.0
0
LINE
8
Gear20
62
4
5
16f
100
AcDbEntity
100
AcDbLine
10
-8.242582
20
310.911579
30
0.0
11
-6.410113
21
311.845452
31
0.0
0
LINE
8
Gear20
62
4
5
170
100
AcDbEntity
100
AcDbLine
10
-6.410113
20
311.845452
30
0.0
11
-6.692618
21
312.500208
31
0.0
0
LINE
8
Gear20
62
4
5
171
100
AcDbEntity
100
AcDbLine
10
-6.692618
20
312.500208
30
0.0
11
-6.875498
21
313.599181
31
0.0
0
LINE
8
Gear20
62
4
5
172
100
AcDbEntity
100
AcDbLine
10
-6.875498
20
313.599181
30
0.0
11
-6.697698
21
315.593928
31
0.0
0
LINE
8
Gear20
62
4
5
173
100
AcDbEntity
100
AcDbLine
10
-6.697698
20
315.593928
30
0.0
11
-5.510671
21
315.979725
31
0.0
0
LINE
8
Gear20
62
4
5
174
100
AcDbEntity
100
AcDbLine
10
-5.510671
20
315.979725
30
0.0
11
-4.194387
21
314.470401
31
0.0
0
LINE
8
Gear20
62
4
5
175
100
AcDbEntity
100
AcDbLine
10
-4.194387
20
314.470401
30
0.0
11
-3.696264
21
313.473592
31
0.0
0
LINE
8
Gear20
62
4
5
176
100
AcDbEntity
100
AcDbLine
10
-3.696264
20
313.473592
30
0.0
11
-3.540196
21
312.777914
31
0.0
0
LINE
8
Gear20
62
4
5
177
100
AcDbEntity
100
AcDbLine
10
-3.540196
20
312.777914
30
0.0
11
-1.508760
21
313.099648
31
0.0
0
LINE
8
Gear20
62
4
5
178
100
AcDbEntity
100
AcDbLine
10
-1.508760
20
313.099648
30
0.0
11
-1.575364
21
313.809719
31
0.0
0
LINE
8
Gear20
62
4
5
179
100
AcDbEntity
100
AcDbLine
10
-1.575364
20
313.809719
30
0.0
11
-1.409700
21
314.911514
31
0.0
0
LINE
8
Gear20
62
4
5
17a
100
AcDbEntity
100
AcDbLine
10
-1.409700
20
314.911514
30
0.0
11
-0.624276
21
316.753579
31
0.0
0
LINE
8
Gear20
62
4
5
17b
100
AcDbEntity
100
AcDbLine
10
-0.624276
20
316.753579
30
0.0
11
0.624276
21
316.753579
31
0.0
0
LINE
8
Gear20
62
4
5
17c
100
AcDbEntity
100
AcDbLine
10
0.624276
20
316.753579
30
0.0
11
1.409700
21
314.911514
31
0.0
0
LINE
8
Gear20
62
4
5
17d
100
AcDbEntity
100
AcDbLine
10
1.409700
20
314.911514
30
0.0
11
1.575364
21
313.809719
31
0.0
0
LINE
8
Gear20
62
4
5
17e
100
AcDbEntity
100
AcDbLine
10
1.575364
20
313.809719
30
0.0
11
1.508760
21
313.099648
31
0.0
0
LINE
8
Gear20
62
4
5
17f
100
AcDbEntity
100
AcDbLine
10
1.508760
20
313.099648
30
0.0
11
3.540196
21
312.777914
31
0.0
0
LINE
8
Gear20
62
4
5
180
100
AcDbEntity
100
AcDbLine
10
3.540196
20
312.777914
30
0.0
11
3.696264
21
313.473592
31
0.0
0
LINE
8
Gear20
62
4
5
181
100
AcDbEntity
100
AcDbLine
10
3.696264
20
313.473592
30
0.0
11
4.194387
21
314.470401
31
0.0
0
LINE
8
Gear20
62
4
5
182
100
AcDbEntity
100
AcDbLine
10
4.194387
20
314.470401
30
0.0
11
5.510671
21
315.979725
31
0.0
0
LINE
8
Gear20
62
4
5
183
100
AcDbEntity
100
AcDbLine
10
5.510671
20
315.979725
30
0.0
11
6.697698
21
315.593928
31
0.0
0
LINE
8
Gear20
62
4
5
184
100
AcDbEntity
100
AcDbLine
10
6.697698
20
315.593928
30
0.0
11
6.875498
21
313.599181
31
0.0
0
LINE
8
Gear20
62
4
5
185
100
AcDbEntity
100
AcDbLine
10
6.875498
20
313.599181
30
0.0
11
6.692618
21
312.500208
31
0.0
0
LINE
8
Gear20
62
4
5
186
100
AcDbEntity
100
AcDbLine
10
6.692618
20
312.500208
30
0.0
11
6.410113
21
311.845452
31
0.0
0
LINE
8
Gear20
62
4
5
187
100
AcDbEntity
100
AcDbLine
10
6.410113
20
311.845452
30
0.0
11
8.242582
21
310.911579
31
0.0
0
LINE
8
Gear20
62
4
5
188
100
AcDbEntity
100
AcDbLine
10
8.242582
20
310.911579
30
0.0
11
8.606084
21
311.525130
31
0.0
0
LINE
8
Gear20
62
4
5
189
100
AcDbEntity
100
AcDbLine
10
8.606084
20
311.525130
30
0.0
11
9.387558
21
312.319303
31
0.0
0
LINE
8
Gear20
62
4
5
18a
100
AcDbEntity
100
AcDbLine
10
9.387558
20
312.319303
30
0.0
11
11.106009
21
313.348003
31
0.0
0
LINE
8
Gear20
62
4
5
18b
100
AcDbEntity
100
AcDbLine
10
11.106009
20
313.348003
30
0.0
11
12.115800
21
312.614225
31
0.0
0
LINE
8
Gear20
62
4
5
18c
100
AcDbEntity
100
AcDbLine
10
12.115800
20
312.614225
30
0.0
11
11.668478
21
310.662094
31
0.0
0
LINE
8
Gear20
62
4
5
18d
100
AcDbEntity
100
AcDbLine
10
11.668478
20
310.662094
30
0.0
11
11.154833
21
309.673188
31
0.0
0
LINE
8
Gear20
62
4
5
18e
100
AcDbEntity
100
AcDbLine
10
11.154833
20
309.673188
30
0.0
11
10.683804
21
309.138094
31
0.0
0
LINE
8
Gear20
62
4
5
18f
100
AcDbEntity
100
AcDbLine
10
10.683804
20
309.138094
30
0.0
11
12.138096
21
307.683803
31
0.0
0
LINE
8
Gear20
62
4
5
190
100
AcDbEntity
100
AcDbLine
10
12.138096
20
307.683803
30
0.0
11
12.673189
21
308.154832
31
0.0
0
LINE
8
Gear20
62
4
5
191
100
AcDbEntity
100
AcDbLine
10
12.673189
20
308.154832
30
0.0
11
13.662096
21
308.668476
31
0.0
0
LINE
8
Gear20
62
4
5
192
100
AcDbEntity
100
AcDbLine
10
13.662096
20
308.668476
30
0.0
11
15.614227
21
309.115799
31
0.0
0
LINE
8
Gear20
62
4
5
193
100
AcDbEntity
100
AcDbLine
10
15.614227
20
309.115799
30
0.0
11
16.348004
21
308.106008
31
0.0
0
LINE
8
Gear20
62
4
5
194
100
AcDbEntity
100
AcDbLine
10
16.348004
20
308.106008
30
0.0
11
15.319304
21
306.387556
31
0.0
0
LINE
8
Gear20
62
4
5
195
100
AcDbEntity
100
AcDbLine
10
15.319304
20
306.387556
30
0.0
11
14.525131
21
305.606083
31
0.0
0
LINE
8
Gear20
62
4
5
196
100
AcDbEntity
100
AcDbLine
10
14.525131
20
305.606083
30
0.0
11
13.911580
21
305.242581
31
0.0
0
LINE
8
Gear20
62
4
5
197
100
AcDbEntity
100
AcDbLine
10
13.911580
20
305.242581
30
0.0
11
14.845453
21
303.410112
31
0.0
0
LINE
8
Gear20
62
4
5
198
100
AcDbEntity
100
AcDbLine
10
14.845453
20
303.410112
30
0.0
11
15.500209
21
303.692616
31
0.0
0
LINE
8
Gear20
62
4
5
199
100
AcDbEntity
100
AcDbLine
10
15.500209
20
303.692616
30
0.0
11
16.599182
21
303.875496
31
0.0
0
LINE
8
Gear20
62
4
5
19a
100
AcDbEntity
100
AcDbLine
10
16.599182
20
303.875496
30
0.0
11
18.593929
21
303.697696
31
0.0
0
LINE
8
Gear20
62
4
5
19b
100
AcDbEntity
100
AcDbLine
10
18.593929
20
303.697696
30
0.0
11
18.979727
21
302.510670
31
0.0
0
LINE
8
Gear20
62
4
5
19c
100
AcDbEntity
100
AcDbLine
10
18.979727
20
302.510670
30
0.0
11
17.470402
21
301.194385
31
0.0
0
LINE
8
Gear20
62
4
5
19d
100
AcDbEntity
100
AcDbLine
10
17.470402
20
301.194385
30
0.0
11
16.473593
21
300.696263
31
0.0
0
LINE
8
Gear20
62
4
5
19e
100
AcDbEntity
100
AcDbLine
10
16.473593
20
300.696263
30
0.0
11
15.777916
21
300.540194
31
0.0
0
LINE
8
Gear20
62
4
5
19f
100
AcDbEntity
100
AcDbLine
10
15.777916
20
300.540194
30
0.0
11
16.099649
21
298.508759
31
0.0
  0
ENDSEC
  0
SECTION
  2
OBJECTS
  0
DICTIONARY
  5
C
330
0
100
AcDbDictionary
  3
ACAD_GROUP
350
D
  3
ACAD_MLINESTYLE
350
17
  0
DICTIONARY
  5
D
330
C
100
AcDbDictionary
  0
DICTIONARY
  5
1A
330
C
100
AcDbDictionary
  0
DICTIONARY
  5
17
330
C
100
AcDbDictionary
  3
STANDARD
350
18
  0
DICTIONARY
  5
19
330
C
100
AcDbDictionary
  0
ENDSEC
  0
EOF
