999
Inkscape export via "Better DXF Output" (bob@bobcookdev.com)
  0
SECTION
  2
HEADER
  9
$ACADVER
  1
AC1014
  9
$HANDSEED
  5
FFFF
  0
ENDSEC
  0
SECTION
  2
TABLES
  0
TABLE
  2
VPORT
  5
8
330
0
100
AcDbSymbolTable
 70
     4
  0
VPORT
  5
2E
330
8
100
AcDbSymbolTableRecord
100
AcDbViewportTableRecord
  2
*ACTIVE
 70
     0
 10
0.0
 20
0.0
 11
1.0
 21
1.0
 12
4.25
 22
5.5
 13
0.0
 23
0.0
 14
10.0
 24
10.0
 15
10.0
 25
10.0
 16
0.0
 26
0.0
 36
1.0
 17
0.0
 27
0.0
 37
0.0
 40
11
 41
1.24
 42
50.0
 43
0.0
 44
0.0
 50
0.0
 51
0.0
 71
     0
 72
   100
 73
     1
 74
     3
 75
     0
 76
     0
 77
     0
 78
     0
  0
ENDTAB
  0
TABLE
  2
LTYPE
  5
5
330
0
100
AcDbSymbolTable
 70
     1
  0
LTYPE
  5
14
330
5
100
AcDbSymbolTableRecord
100
AcDbLinetypeTableRecord
  2
BYBLOCK
 70
     0
  3

 72
    65
 73
     0
 40
0.0
  0
LTYPE
  5
15
330
5
100
AcDbSymbolTableRecord
100
AcDbLinetypeTableRecord
  2
BYLAYER
 70
     0
  3

 72
    65
 73
     0
 40
0.0
  0
LTYPE
  5
16
330
5
100
AcDbSymbolTableRecord
100
AcDbLinetypeTableRecord
  2
CONTINUOUS
 70
     0
  3
Solid line
 72
    65
 73
     0
 40
0.0
  0
ENDTAB
  0
TABLE
  2
LAYER
  5
2
330
0
100
AcDbSymbolTable
 70
1
  0
LAYER
  5
10
330
2
100
AcDbSymbolTableRecord
100
AcDbLayerTableRecord
  2
0
 70
     0
 62
     7
  6
CONTINUOUS
  0
ENDTAB
  0
TABLE
  2
STYLE
  5
3
330
0
100
AcDbSymbolTable
 70
     1
  0
STYLE
  5
11
330
3
100
AcDbSymbolTableRecord
100
AcDbTextStyleTableRecord
  2
STANDARD
 70
     0
 40
0.0
 41
1.0
 50
0.0
 71
     0
 42
2.5
  3
txt
  4

  0
ENDTAB
  0
TABLE
  2
VIEW
  5
6
330
0
100
AcDbSymbolTable
 70
     0
  0
ENDTAB
  0
TABLE
  2
UCS
  5
7
330
0
100
AcDbSymbolTable
 70
     0
  0
ENDTAB
  0
TABLE
  2
APPID
  5
9
330
0
100
AcDbSymbolTable
 70
     2
  0
APPID
  5
12
330
9
100
AcDbSymbolTableRecord
100
AcDbRegAppTableRecord
  2
ACAD
 70
     0
  0
ENDTAB
  0
TABLE
  2
DIMSTYLE
  5
A
330
0
100
AcDbSymbolTable
 70
     1
  0
DIMSTYLE
105
27
330
A
100
AcDbSymbolTableRecord
100
AcDbDimStyleTableRecord
  2
ISO-25
 70
     0
  3

  4

  5

  6

  7

 40
1.0
 41
2.5
 42
0.625
 43
3.75
 44
1.25
 45
0.0
 46
0.0
 47
0.0
 48
0.0
140
2.5
141
2.5
142
0.0
143
0.03937007874016
144
1.0
145
0.0
146
1.0
147
0.625
 71
     0
 72
     0
 73
     0
 74
     0
 75
     0
 76
     0
 77
     1
 78
     8
170
     0
171
     3
172
     1
173
     0
174
     0
175
     0
176
     0
177
     0
178
     0
270
     2
271
     2
272
     2
273
     2
274
     3
340
11
275
     0
280
     0
281
     0
282
     0
283
     0
284
     8
285
     0
286
     0
287
     3
288
     0
  0
ENDTAB
  0
TABLE
  2
BLOCK_RECORD
  5
1
330
0
100
AcDbSymbolTable
 70
     1
  0
BLOCK_RECORD
  5
1F
330
1
100
AcDbSymbolTableRecord
100
AcDbBlockTableRecord
  2
*MODEL_SPACE
  0
BLOCK_RECORD
  5
1B
330
1
100
AcDbSymbolTableRecord
100
AcDbBlockTableRecord
  2
*PAPER_SPACE
  0
ENDTAB
  0
ENDSEC
  0
SECTION
  2
BLOCKS
  0
BLOCK
  5
20
330
1F
100
AcDbEntity
  8
0
100
AcDbBlockBegin
  2
*MODEL_SPACE
 70
     0
 10
0.0
 20
0.0
 30
0.0
  3
*MODEL_SPACE
  1

  0
ENDBLK
  5
21
330
1F
100
AcDbEntity
  8
0
100
AcDbBlockEnd
  0
BLOCK
  5
1C
330
1B
100
AcDbEntity
 67
     1
  8
0
100
AcDbBlockBegin
  2
*PAPER_SPACE
  1

  0
ENDBLK
  5
1D
330
1B
100
AcDbEntity
 67
     1
  8
0
100
AcDbBlockEnd
  0
ENDSEC
  0
SECTION
  2
ENTITIES
0
LINE
8
Gear30
62
4
5
100
100
AcDbEntity
100
AcDbLine
10
25.096611
20
298.690792
30
0.0
11
25.267638
21
298.702081
31
0.0
0
LINE
8
Gear30
62
4
5
101
100
AcDbEntity
100
AcDbLine
10
25.267638
20
298.702081
30
0.0
11
26.913276
21
298.410545
31
0.0
0
LINE
8
Gear30
62
4
5
102
100
AcDbEntity
100
AcDbLine
10
26.913276
20
298.410545
30
0.0
11
28.739253
21
297.662374
31
0.0
0
LINE
8
Gear30
62
4
5
103
100
AcDbEntity
100
AcDbLine
10
28.739253
20
297.662374
30
0.0
11
28.739253
21
296.337623
31
0.0
0
LINE
8
Gear30
62
4
5
104
100
AcDbEntity
100
AcDbLine
10
28.739253
20
296.337623
30
0.0
11
26.913276
21
295.589452
31
0.0
0
LINE
8
Gear30
62
4
5
105
100
AcDbEntity
100
AcDbLine
10
26.913276
20
295.589452
30
0.0
11
25.267638
21
295.297916
31
0.0
0
LINE
8
Gear30
62
4
5
106
100
AcDbEntity
100
AcDbLine
10
25.267638
20
295.297916
30
0.0
11
25.096611
21
295.309205
31
0.0
0
LINE
8
Gear30
62
4
5
107
100
AcDbEntity
100
AcDbLine
10
25.096611
20
295.309205
30
0.0
11
24.899620
21
293.435814
31
0.0
0
LINE
8
Gear30
62
4
5
108
100
AcDbEntity
100
AcDbLine
10
24.899620
20
293.435814
30
0.0
11
25.069518
21
293.411543
31
0.0
0
LINE
8
Gear30
62
4
5
109
100
AcDbEntity
100
AcDbLine
10
25.069518
20
293.411543
30
0.0
11
26.618353
21
292.784163
31
0.0
0
LINE
8
Gear30
62
4
5
10a
100
AcDbEntity
100
AcDbLine
10
26.618353
20
292.784163
30
0.0
11
28.249033
21
291.672772
31
0.0
0
LINE
8
Gear30
62
4
5
10b
100
AcDbEntity
100
AcDbLine
10
28.249033
20
291.672772
30
0.0
11
27.973584
21
290.376808
31
0.0
0
LINE
8
Gear30
62
4
5
10c
100
AcDbEntity
100
AcDbLine
10
27.973584
20
290.376808
30
0.0
11
26.031896
21
290.024876
31
0.0
0
LINE
8
Gear30
62
4
5
10d
100
AcDbEntity
100
AcDbLine
10
26.031896
20
290.024876
30
0.0
11
24.361704
21
290.081603
31
0.0
0
LINE
8
Gear30
62
4
5
10e
100
AcDbEntity
100
AcDbLine
10
24.361704
20
290.081603
30
0.0
11
24.196604
21
290.128452
31
0.0
0
LINE
8
Gear30
62
4
5
10f
100
AcDbEntity
100
AcDbLine
10
24.196604
20
290.128452
30
0.0
11
23.614662
21
288.336623
31
0.0
0
LINE
8
Gear30
62
4
5
110
100
AcDbEntity
100
AcDbLine
10
23.614662
20
288.336623
30
0.0
11
23.775529
21
288.277639
31
0.0
0
LINE
8
Gear30
62
4
5
111
100
AcDbEntity
100
AcDbLine
10
23.775529
20
288.277639
30
0.0
11
25.160111
21
287.341790
31
0.0
0
LINE
8
Gear30
62
4
5
112
100
AcDbEntity
100
AcDbLine
10
25.160111
20
287.341790
30
0.0
11
26.524091
21
285.915721
31
0.0
0
LINE
8
Gear30
62
4
5
113
100
AcDbEntity
100
AcDbLine
10
26.524091
20
285.915721
30
0.0
11
25.985329
21
284.705552
31
0.0
0
LINE
8
Gear30
62
4
5
114
100
AcDbEntity
100
AcDbLine
10
25.985329
20
284.705552
30
0.0
11
24.012878
21
284.764819
31
0.0
0
LINE
8
Gear30
62
4
5
115
100
AcDbEntity
100
AcDbLine
10
24.012878
20
284.764819
30
0.0
11
22.390947
21
285.167832
31
0.0
0
LINE
8
Gear30
62
4
5
116
100
AcDbEntity
100
AcDbLine
10
22.390947
20
285.167832
30
0.0
11
22.239393
21
285.247701
31
0.0
0
LINE
8
Gear30
62
4
5
117
100
AcDbEntity
100
AcDbLine
10
22.239393
20
285.247701
30
0.0
11
21.297336
21
283.616456
31
0.0
0
LINE
8
Gear30
62
4
5
118
100
AcDbEntity
100
AcDbLine
10
21.297336
20
283.616456
30
0.0
11
21.442398
21
283.525016
31
0.0
0
LINE
8
Gear30
62
4
5
119
100
AcDbEntity
100
AcDbLine
10
21.442398
20
283.525016
30
0.0
11
22.602331
21
282.321903
31
0.0
0
LINE
8
Gear30
62
4
5
11a
100
AcDbEntity
100
AcDbLine
10
22.602331
20
282.321903
30
0.0
11
23.639780
21
280.643245
31
0.0
0
LINE
8
Gear30
62
4
5
11b
100
AcDbEntity
100
AcDbLine
10
23.639780
20
280.643245
30
0.0
11
22.861129
21
279.571648
31
0.0
0
LINE
8
Gear30
62
4
5
11c
100
AcDbEntity
100
AcDbLine
10
22.861129
20
279.571648
30
0.0
11
20.944276
21
280.039572
31
0.0
0
LINE
8
Gear30
62
4
5
11d
100
AcDbEntity
100
AcDbLine
10
20.944276
20
280.039572
30
0.0
11
19.441442
21
280.770810
31
0.0
0
LINE
8
Gear30
62
4
5
11e
100
AcDbEntity
100
AcDbLine
10
19.441442
20
280.770810
30
0.0
11
19.309927
21
280.880876
31
0.0
0
LINE
8
Gear30
62
4
5
11f
100
AcDbEntity
100
AcDbLine
10
19.309927
20
280.880876
30
0.0
11
18.049240
21
279.480772
31
0.0
0
LINE
8
Gear30
62
4
5
120
100
AcDbEntity
100
AcDbLine
10
18.049240
20
279.480772
30
0.0
11
18.172289
21
279.361392
31
0.0
0
LINE
8
Gear30
62
4
5
121
100
AcDbEntity
100
AcDbLine
10
18.172289
20
279.361392
30
0.0
11
19.056773
21
277.943225
31
0.0
0
LINE
8
Gear30
62
4
5
122
100
AcDbEntity
100
AcDbLine
10
19.056773
20
277.943225
30
0.0
11
19.722536
21
276.085639
31
0.0
0
LINE
8
Gear30
62
4
5
123
100
AcDbEntity
100
AcDbLine
10
19.722536
20
276.085639
30
0.0
11
18.738144
21
275.199461
31
0.0
0
LINE
8
Gear30
62
4
5
124
100
AcDbEntity
100
AcDbLine
10
18.738144
20
275.199461
30
0.0
11
16.960427
21
276.055723
31
0.0
0
LINE
8
Gear30
62
4
5
125
100
AcDbEntity
100
AcDbLine
10
16.960427
20
276.055723
30
0.0
11
15.642449
21
277.083576
31
0.0
0
LINE
8
Gear30
62
4
5
126
100
AcDbEntity
100
AcDbLine
10
15.642449
20
277.083576
30
0.0
11
15.536616
21
277.218196
31
0.0
0
LINE
8
Gear30
62
4
5
127
100
AcDbEntity
100
AcDbLine
10
15.536616
20
277.218196
30
0.0
11
14.012616
21
276.111039
31
0.0
0
LINE
8
Gear30
62
4
5
128
100
AcDbEntity
100
AcDbLine
10
14.012616
20
276.111039
30
0.0
11
14.108007
21
275.968516
31
0.0
0
LINE
8
Gear30
62
4
5
129
100
AcDbEntity
100
AcDbLine
10
14.108007
20
275.968516
30
0.0
11
14.678096
21
274.397668
31
0.0
0
LINE
8
Gear30
62
4
5
12a
100
AcDbEntity
100
AcDbLine
10
14.678096
20
274.397668
30
0.0
11
14.943384
21
272.442150
31
0.0
0
LINE
8
Gear30
62
4
5
12b
100
AcDbEntity
100
AcDbLine
10
14.943384
20
272.442150
30
0.0
11
13.795869
21
271.779774
31
0.0
0
LINE
8
Gear30
62
4
5
12c
100
AcDbEntity
100
AcDbLine
10
13.795869
20
271.779774
30
0.0
11
12.235180
21
272.987121
31
0.0
0
LINE
8
Gear30
62
4
5
12d
100
AcDbEntity
100
AcDbLine
10
12.235180
20
272.987121
30
0.0
11
11.159631
21
274.266434
31
0.0
0
LINE
8
Gear30
62
4
5
12e
100
AcDbEntity
100
AcDbLine
10
11.159631
20
274.266434
30
0.0
11
11.084278
21
274.420245
31
0.0
0
LINE
8
Gear30
62
4
5
12f
100
AcDbEntity
100
AcDbLine
10
11.084278
20
274.420245
30
0.0
11
9.363287
21
273.654012
31
0.0
0
LINE
8
Gear30
62
4
5
130
100
AcDbEntity
100
AcDbLine
10
9.363287
20
273.654012
30
0.0
11
9.427069
21
273.495121
31
0.0
0
LINE
8
Gear30
62
4
5
131
100
AcDbEntity
100
AcDbLine
10
9.427069
20
273.495121
30
0.0
11
9.658209
21
271.839888
31
0.0
0
LINE
8
Gear30
62
4
5
132
100
AcDbEntity
100
AcDbLine
10
9.658209
20
271.839888
30
0.0
11
9.510889
21
269.871952
31
0.0
0
LINE
8
Gear30
62
4
5
133
100
AcDbEntity
100
AcDbLine
10
9.510889
20
269.871952
30
0.0
11
8.251049
21
269.462730
31
0.0
0
LINE
8
Gear30
62
4
5
134
100
AcDbEntity
100
AcDbLine
10
8.251049
20
269.462730
30
0.0
11
6.975122
21
270.968103
31
0.0
0
LINE
8
Gear30
62
4
5
135
100
AcDbEntity
100
AcDbLine
10
6.975122
20
270.968103
30
0.0
11
6.189133
21
272.442996
31
0.0
0
LINE
8
Gear30
62
4
5
136
100
AcDbEntity
100
AcDbLine
10
6.189133
20
272.442996
30
0.0
11
6.147364
21
272.609225
31
0.0
0
LINE
8
Gear30
62
4
5
137
100
AcDbEntity
100
AcDbLine
10
6.147364
20
272.609225
30
0.0
11
4.304736
21
272.217501
31
0.0
0
LINE
8
Gear30
62
4
5
138
100
AcDbEntity
100
AcDbLine
10
4.304736
20
272.217501
30
0.0
11
4.334087
21
272.048732
31
0.0
0
LINE
8
Gear30
62
4
5
139
100
AcDbEntity
100
AcDbLine
10
4.334087
20
272.048732
30
0.0
11
4.215836
21
270.381645
31
0.0
0
LINE
8
Gear30
62
4
5
13a
100
AcDbEntity
100
AcDbLine
10
4.215836
20
270.381645
30
0.0
11
3.662962
21
268.487370
31
0.0
0
LINE
8
Gear30
62
4
5
13b
100
AcDbEntity
100
AcDbLine
10
3.662962
20
268.487370
30
0.0
11
2.345267
21
268.348799
31
0.0
0
LINE
8
Gear30
62
4
5
13c
100
AcDbEntity
100
AcDbLine
10
2.345267
20
268.348799
30
0.0
11
1.410547
21
270.086723
31
0.0
0
LINE
8
Gear30
62
4
5
13d
100
AcDbEntity
100
AcDbLine
10
1.410547
20
270.086723
30
0.0
11
0.948267
21
271.692850
31
0.0
0
LINE
8
Gear30
62
4
5
13e
100
AcDbEntity
100
AcDbLine
10
0.948267
20
271.692850
30
0.0
11
0.942058
21
271.864159
31
0.0
0
LINE
8
Gear30
62
4
5
13f
100
AcDbEntity
100
AcDbLine
10
0.942058
20
271.864159
30
0.0
11
-0.942058
21
271.864159
31
0.0
0
LINE
8
Gear30
62
4
5
140
100
AcDbEntity
100
AcDbLine
10
-0.942058
20
271.864159
30
0.0
11
-0.948267
21
271.692850
31
0.0
0
LINE
8
Gear30
62
4
5
141
100
AcDbEntity
100
AcDbLine
10
-0.948267
20
271.692850
30
0.0
11
-1.410547
21
270.086723
31
0.0
0
LINE
8
Gear30
62
4
5
142
100
AcDbEntity
100
AcDbLine
10
-1.410547
20
270.086723
30
0.0
11
-2.345267
21
268.348799
31
0.0
0
LINE
8
Gear30
62
4
5
143
100
AcDbEntity
100
AcDbLine
10
-2.345267
20
268.348799
30
0.0
11
-3.662962
21
268.487370
31
0.0
0
LINE
8
Gear30
62
4
5
144
100
AcDbEntity
100
AcDbLine
10
-3.662962
20
268.487370
30
0.0
11
-4.215836
21
270.381645
31
0.0
0
LINE
8
Gear30
62
4
5
145
100
AcDbEntity
100
AcDbLine
10
-4.215836
20
270.381645
30
0.0
11
-4.334087
21
272.048732
31
0.0
0
LINE
8
Gear30
62
4
5
146
100
AcDbEntity
100
AcDbLine
10
-4.334087
20
272.048732
30
0.0
11
-4.304736
21
272.217501
31
0.0
0
LINE
8
Gear30
62
4
5
147
100
AcDbEntity
100
AcDbLine
10
-4.304736
20
272.217501
30
0.0
11
-6.147364
21
272.609225
31
0.0
0
LINE
8
Gear30
62
4
5
148
100
AcDbEntity
100
AcDbLine
10
-6.147364
20
272.609225
30
0.0
11
-6.189133
21
272.442996
31
0.0
0
LINE
8
Gear30
62
4
5
149
100
AcDbEntity
100
AcDbLine
10
-6.189133
20
272.442996
30
0.0
11
-6.975122
21
270.968103
31
0.0
0
LINE
8
Gear30
62
4
5
14a
100
AcDbEntity
100
AcDbLine
10
-6.975122
20
270.968103
30
0.0
11
-8.251049
21
269.462730
31
0.0
0
LINE
8
Gear30
62
4
5
14b
100
AcDbEntity
100
AcDbLine
10
-8.251049
20
269.462730
30
0.0
11
-9.510889
21
269.871952
31
0.0
0
LINE
8
Gear30
62
4
5
14c
100
AcDbEntity
100
AcDbLine
10
-9.510889
20
269.871952
30
0.0
11
-9.658209
21
271.839888
31
0.0
0
LINE
8
Gear30
62
4
5
14d
100
AcDbEntity
100
AcDbLine
10
-9.658209
20
271.839888
30
0.0
11
-9.427069
21
273.495121
31
0.0
0
LINE
8
Gear30
62
4
5
14e
100
AcDbEntity
100
AcDbLine
10
-9.427069
20
273.495121
30
0.0
11
-9.363287
21
273.654012
31
0.0
0
LINE
8
Gear30
62
4
5
14f
100
AcDbEntity
100
AcDbLine
10
-9.363287
20
273.654012
30
0.0
11
-11.084278
21
274.420245
31
0.0
0
LINE
8
Gear30
62
4
5
150
100
AcDbEntity
100
AcDbLine
10
-11.084278
20
274.420245
30
0.0
11
-11.159631
21
274.266434
31
0.0
0
LINE
8
Gear30
62
4
5
151
100
AcDbEntity
100
AcDbLine
10
-11.159631
20
274.266434
30
0.0
11
-12.235180
21
272.987121
31
0.0
0
LINE
8
Gear30
62
4
5
152
100
AcDbEntity
100
AcDbLine
10
-12.235180
20
272.987121
30
0.0
11
-13.795869
21
271.779774
31
0.0
0
LINE
8
Gear30
62
4
5
153
100
AcDbEntity
100
AcDbLine
10
-13.795869
20
271.779774
30
0.0
11
-14.943384
21
272.442150
31
0.0
0
LINE
8
Gear30
62
4
5
154
100
AcDbEntity
100
AcDbLine
10
-14.943384
20
272.442150
30
0.0
11
-14.678096
21
274.397668
31
0.0
0
LINE
8
Gear30
62
4
5
155
100
AcDbEntity
100
AcDbLine
10
-14.678096
20
274.397668
30
0.0
11
-14.108007
21
275.968516
31
0.0
0
LINE
8
Gear30
62
4
5
156
100
AcDbEntity
100
AcDbLine
10
-14.108007
20
275.968516
30
0.0
11
-14.012616
21
276.111039
31
0.0
0
LINE
8
Gear30
62
4
5
157
100
AcDbEntity
100
AcDbLine
10
-14.012616
20
276.111039
30
0.0
11
-15.536616
21
277.218196
31
0.0
0
LINE
8
Gear30
62
4
5
158
100
AcDbEntity
100
AcDbLine
10
-15.536616
20
277.218196
30
0.0
11
-15.642449
21
277.083576
31
0.0
0
LINE
8
Gear30
62
4
5
159
100
AcDbEntity
100
AcDbLine
10
-15.642449
20
277.083576
30
0.0
11
-16.960427
21
276.055723
31
0.0
0
LINE
8
Gear30
62
4
5
15a
100
AcDbEntity
100
AcDbLine
10
-16.960427
20
276.055723
30
0.0
11
-18.738144
21
275.199461
31
0.0
0
LINE
8
Gear30
62
4
5
15b
100
AcDbEntity
100
AcDbLine
10
-18.738144
20
275.199461
30
0.0
11
-19.722536
21
276.085639
31
0.0
0
LINE
8
Gear30
62
4
5
15c
100
AcDbEntity
100
AcDbLine
10
-19.722536
20
276.085639
30
0.0
11
-19.056773
21
277.943225
31
0.0
0
LINE
8
Gear30
62
4
5
15d
100
AcDbEntity
100
AcDbLine
10
-19.056773
20
277.943225
30
0.0
11
-18.172289
21
279.361392
31
0.0
0
LINE
8
Gear30
62
4
5
15e
100
AcDbEntity
100
AcDbLine
10
-18.172289
20
279.361392
30
0.0
11
-18.049240
21
279.480772
31
0.0
0
LINE
8
Gear30
62
4
5
15f
100
AcDbEntity
100
AcDbLine
10
-18.049240
20
279.480772
30
0.0
11
-19.309927
21
280.880876
31
0.0
0
LINE
8
Gear30
62
4
5
160
100
AcDbEntity
100
AcDbLine
10
-19.309927
20
280.880876
30
0.0
11
-19.441442
21
280.770810
31
0.0
0
LINE
8
Gear30
62
4
5
161
100
AcDbEntity
100
AcDbLine
10
-19.441442
20
280.770810
30
0.0
11
-20.944276
21
280.039572
31
0.0
0
LINE
8
Gear30
62
4
5
162
100
AcDbEntity
100
AcDbLine
10
-20.944276
20
280.039572
30
0.0
11
-22.861129
21
279.571648
31
0.0
0
LINE
8
Gear30
62
4
5
163
100
AcDbEntity
100
AcDbLine
10
-22.861129
20
279.571648
30
0.0
11
-23.639780
21
280.643245
31
0.0
0
LINE
8
Gear30
62
4
5
164
100
AcDbEntity
100
AcDbLine
10
-23.639780
20
280.643245
30
0.0
11
-22.602331
21
282.321903
31
0.0
0
LINE
8
Gear30
62
4
5
165
100
AcDbEntity
100
AcDbLine
10
-22.602331
20
282.321903
30
0.0
11
-21.442398
21
283.525016
31
0.0
0
LINE
8
Gear30
62
4
5
166
100
AcDbEntity
100
AcDbLine
10
-21.442398
20
283.525016
30
0.0
11
-21.297336
21
283.616456
31
0.0
0
LINE
8
Gear30
62
4
5
167
100
AcDbEntity
100
AcDbLine
10
-21.297336
20
283.616456
30
0.0
11
-22.239393
21
285.247701
31
0.0
0
LINE
8
Gear30
62
4
5
168
100
AcDbEntity
100
AcDbLine
10
-22.239393
20
285.247701
30
0.0
11
-22.390947
21
285.167832
31
0.0
0
LINE
8
Gear30
62
4
5
169
100
AcDbEntity
100
AcDbLine
10
-22.390947
20
285.167832
30
0.0
11
-24.012878
21
284.764819
31
0.0
0
LINE
8
Gear30
62
4
5
16a
100
AcDbEntity
100
AcDbLine
10
-24.012878
20
284.764819
30
0.0
11
-25.985329
21
284.705552
31
0.0
0
LINE
8
Gear30
62
4
5
16b
100
AcDbEntity
100
AcDbLine
10
-25.985329
20
284.705552
30
0.0
11
-26.524091
21
285.915721
31
0.0
0
LINE
8
Gear30
62
4
5
16c
100
AcDbEntity
100
AcDbLine
10
-26.524091
20
285.915721
30
0.0
11
-25.160111
21
287.341790
31
0.0
0
LINE
8
Gear30
62
4
5
16d
100
AcDbEntity
100
AcDbLine
10
-25.160111
20
287.341790
30
0.0
11
-23.775529
21
288.277639
31
0.0
0
LINE
8
Gear30
62
4
5
16e
100
AcDbEntity
100
AcDbLine
10
-23.775529
20
288.277639
30
0.0
11
-23.614662
21
288.336623
31
0.0
0
LINE
8
Gear30
62
4
5
16f
100
AcDbEntity
100
AcDbLine
10
-23.614662
20
288.336623
30
0.0
11
-24.196604
21
290.128452
31
0.0
0
LINE
8
Gear30
62
4
5
170
100
AcDbEntity
100
AcDbLine
10
-24.196604
20
290.128452
30
0.0
11
-24.361704
21
290.081603
31
0.0
0
LINE
8
Gear30
62
4
5
171
100
AcDbEntity
100
AcDbLine
10
-24.361704
20
290.081603
30
0.0
11
-26.031896
21
290.024876
31
0.0
0
LINE
8
Gear30
62
4
5
172
100
AcDbEntity
100
AcDbLine
10
-26.031896
20
290.024876
30
0.0
11
-27.973584
21
290.376808
31
0.0
0
LINE
8
Gear30
62
4
5
173
100
AcDbEntity
100
AcDbLine
10
-27.973584
20
290.376808
30
0.0
11
-28.249033
21
291.672772
31
0.0
0
LINE
8
Gear30
62
4
5
174
100
AcDbEntity
100
AcDbLine
10
-28.249033
20
291.672772
30
0.0
11
-26.618353
21
292.784163
31
0.0
0
LINE
8
Gear30
62
4
5
175
100
AcDbEntity
100
AcDbLine
10
-26.618353
20
292.784163
30
0.0
11
-25.069518
21
293.411543
31
0.0
0
LINE
8
Gear30
62
4
5
176
100
AcDbEntity
100
AcDbLine
10
-25.069518
20
293.411543
30
0.0
11
-24.899620
21
293.435814
31
0.0
0
LINE
8
Gear30
62
4
5
177
100
AcDbEntity
100
AcDbLine
10
-24.899620
20
293.435814
30
0.0
11
-25.096611
21
295.309205
31
0.0
0
LINE
8
Gear30
62
4
5
178
100
AcDbEntity
100
AcDbLine
10
-25.096611
20
295.309205
30
0.0
11
-25.267638
21
295.297916
31
0.0
0
LINE
8
Gear30
62
4
5
179
100
AcDbEntity
100
AcDbLine
10
-25.267638
20
295.297916
30
0.0
11
-26.913276
21
295.589452
31
0.0
0
LINE
8
Gear30
62
4
5
17a
100
AcDbEntity
100
AcDbLine
10
-26.913276
20
295.589452
30
0.0
11
-28.739253
21
296.337623
31
0.0
0
LINE
8
Gear30
62
4
5
17b
100
AcDbEntity
100
AcDbLine
10
-28.739253
20
296.337623
30
0.0
11
-28.739253
21
297.662374
31
0.0
0
LINE
8
Gear30
62
4
5
17c
100
AcDbEntity
100
AcDbLine
10
-28.739253
20
297.662374
30
0.0
11
-26.913276
21
298.410545
31
0.0
0
LINE
8
Gear30
62
4
5
17d
100
AcDbEntity
100
AcDbLine
10
-26.913276
20
298.410545
30
0.0
11
-25.267638
21
298.702081
31
0.0
0
LINE
8
Gear30
62
4
5
17e
100
AcDbEntity
100
AcDbLine
10
-25.267638
20
298.702081
30
0.0
11
-25.096611
21
298.690792
31
0.0
0
LINE
8
Gear30
62
4
5
17f
100
AcDbEntity
100
AcDbLine
10
-25.096611
20
298.690792
30
0.0
11
-24.899620
21
300.564183
31
0.0
0
LINE
8
Gear30
62
4
5
180
100
AcDbEntity
100
AcDbLine
10
-24.899620
20
300.564183
30
0.0
11
-25.069518
21
300.588454
31
0.0
0
LINE
8
Gear30
62
4
5
181
100
AcDbEntity
100
AcDbLine
10
-25.069518
20
300.588454
30
0.0
11
-26.618353
21
301.215834
31
0.0
0
LINE
8
Gear30
62
4
5
182
100
AcDbEntity
100
AcDbLine
10
-26.618353
20
301.215834
30
0.0
11
-28.249033
21
302.327225
31
0.0
0
LINE
8
Gear30
62
4
5
183
100
AcDbEntity
100
AcDbLine
10
-28.249033
20
302.327225
30
0.0
11
-27.973584
21
303.623190
31
0.0
0
LINE
8
Gear30
62
4
5
184
100
AcDbEntity
100
AcDbLine
10
-27.973584
20
303.623190
30
0.0
11
-26.031896
21
303.975121
31
0.0
0
LINE
8
Gear30
62
4
5
185
100
AcDbEntity
100
AcDbLine
10
-26.031896
20
303.975121
30
0.0
11
-24.361704
21
303.918394
31
0.0
0
LINE
8
Gear30
62
4
5
186
100
AcDbEntity
100
AcDbLine
10
-24.361704
20
303.918394
30
0.0
11
-24.196604
21
303.871545
31
0.0
0
LINE
8
Gear30
62
4
5
187
100
AcDbEntity
100
AcDbLine
10
-24.196604
20
303.871545
30
0.0
11
-23.614662
21
305.663374
31
0.0
0
LINE
8
Gear30
62
4
5
188
100
AcDbEntity
100
AcDbLine
10
-23.614662
20
305.663374
30
0.0
11
-23.775529
21
305.722359
31
0.0
0
LINE
8
Gear30
62
4
5
189
100
AcDbEntity
100
AcDbLine
10
-23.775529
20
305.722359
30
0.0
11
-25.160111
21
306.658208
31
0.0
0
LINE
8
Gear30
62
4
5
18a
100
AcDbEntity
100
AcDbLine
10
-25.160111
20
306.658208
30
0.0
11
-26.524091
21
308.084276
31
0.0
0
LINE
8
Gear30
62
4
5
18b
100
AcDbEntity
100
AcDbLine
10
-26.524091
20
308.084276
30
0.0
11
-25.985329
21
309.294445
31
0.0
0
LINE
8
Gear30
62
4
5
18c
100
AcDbEntity
100
AcDbLine
10
-25.985329
20
309.294445
30
0.0
11
-24.012878
21
309.235179
31
0.0
0
LINE
8
Gear30
62
4
5
18d
100
AcDbEntity
100
AcDbLine
10
-24.012878
20
309.235179
30
0.0
11
-22.390947
21
308.832165
31
0.0
0
LINE
8
Gear30
62
4
5
18e
100
AcDbEntity
100
AcDbLine
10
-22.390947
20
308.832165
30
0.0
11
-22.239393
21
308.752296
31
0.0
0
LINE
8
Gear30
62
4
5
18f
100
AcDbEntity
100
AcDbLine
10
-22.239393
20
308.752296
30
0.0
11
-21.297336
21
310.383541
31
0.0
0
LINE
8
Gear30
62
4
5
190
100
AcDbEntity
100
AcDbLine
10
-21.297336
20
310.383541
30
0.0
11
-21.442398
21
310.474981
31
0.0
0
LINE
8
Gear30
62
4
5
191
100
AcDbEntity
100
AcDbLine
10
-21.442398
20
310.474981
30
0.0
11
-22.602331
21
311.678094
31
0.0
0
LINE
8
Gear30
62
4
5
192
100
AcDbEntity
100
AcDbLine
10
-22.602331
20
311.678094
30
0.0
11
-23.639780
21
313.356752
31
0.0
0
LINE
8
Gear30
62
4
5
193
100
AcDbEntity
100
AcDbLine
10
-23.639780
20
313.356752
30
0.0
11
-22.861129
21
314.428350
31
0.0
0
LINE
8
Gear30
62
4
5
194
100
AcDbEntity
100
AcDbLine
10
-22.861129
20
314.428350
30
0.0
11
-20.944276
21
313.960425
31
0.0
0
LINE
8
Gear30
62
4
5
195
100
AcDbEntity
100
AcDbLine
10
-20.944276
20
313.960425
30
0.0
11
-19.441442
21
313.229188
31
0.0
0
LINE
8
Gear30
62
4
5
196
100
AcDbEntity
100
AcDbLine
10
-19.441442
20
313.229188
30
0.0
11
-19.309927
21
313.119121
31
0.0
0
LINE
8
Gear30
62
4
5
197
100
AcDbEntity
100
AcDbLine
10
-19.309927
20
313.119121
30
0.0
11
-18.049240
21
314.519225
31
0.0
0
LINE
8
Gear30
62
4
5
198
100
AcDbEntity
100
AcDbLine
10
-18.049240
20
314.519225
30
0.0
11
-18.172289
21
314.638605
31
0.0
0
LINE
8
Gear30
62
4
5
199
100
AcDbEntity
100
AcDbLine
10
-18.172289
20
314.638605
30
0.0
11
-19.056773
21
316.056772
31
0.0
0
LINE
8
Gear30
62
4
5
19a
100
AcDbEntity
100
AcDbLine
10
-19.056773
20
316.056772
30
0.0
11
-19.722536
21
317.914359
31
0.0
0
LINE
8
Gear30
62
4
5
19b
100
AcDbEntity
100
AcDbLine
10
-19.722536
20
317.914359
30
0.0
11
-18.738144
21
318.800536
31
0.0
0
LINE
8
Gear30
62
4
5
19c
100
AcDbEntity
100
AcDbLine
10
-18.738144
20
318.800536
30
0.0
11
-16.960427
21
317.944274
31
0.0
0
LINE
8
Gear30
62
4
5
19d
100
AcDbEntity
100
AcDbLine
10
-16.960427
20
317.944274
30
0.0
11
-15.642449
21
316.916421
31
0.0
0
LINE
8
Gear30
62
4
5
19e
100
AcDbEntity
100
AcDbLine
10
-15.642449
20
316.916421
30
0.0
11
-15.536616
21
316.781801
31
0.0
0
LINE
8
Gear30
62
4
5
19f
100
AcDbEntity
100
AcDbLine
10
-15.536616
20
316.781801
30
0.0
11
-14.012616
21
317.888959
31
0.0
0
LINE
8
Gear30
62
4
5
1a0
100
AcDbEntity
100
AcDbLine
10
-14.012616
20
317.888959
30
0.0
11
-14.108007
21
318.031481
31
0.0
0
LINE
8
Gear30
62
4
5
1a1
100
AcDbEntity
100
AcDbLine
10
-14.108007
20
318.031481
30
0.0
11
-14.678096
21
319.602330
31
0.0
0
LINE
8
Gear30
62
4
5
1a2
100
AcDbEntity
100
AcDbLine
10
-14.678096
20
319.602330
30
0.0
11
-14.943384
21
321.557848
31
0.0
0
LINE
8
Gear30
62
4
5
1a3
100
AcDbEntity
100
AcDbLine
10
-14.943384
20
321.557848
30
0.0
11
-13.795869
21
322.220223
31
0.0
0
LINE
8
Gear30
62
4
5
1a4
100
AcDbEntity
100
AcDbLine
10
-13.795869
20
322.220223
30
0.0
11
-12.235180
21
321.012876
31
0.0
0
LINE
8
Gear30
62
4
5
1a5
100
AcDbEntity
100
AcDbLine
10
-12.235180
20
321.012876
30
0.0
11
-11.159631
21
319.733563
31
0.0
0
LINE
8
Gear30
62
4
5
1a6
100
AcDbEntity
100
AcDbLine
10
-11.159631
20
319.733563
30
0.0
11
-11.084278
21
319.579752
31
0.0
0
LINE
8
Gear30
62
4
5
1a7
100
AcDbEntity
100
AcDbLine
10
-11.084278
20
319.579752
30
0.0
11
-9.363287
21
320.345985
31
0.0
0
LINE
8
Gear30
62
4
5
1a8
100
AcDbEntity
100
AcDbLine
10
-9.363287
20
320.345985
30
0.0
11
-9.427069
21
320.504876
31
0.0
0
LINE
8
Gear30
62
4
5
1a9
100
AcDbEntity
100
AcDbLine
10
-9.427069
20
320.504876
30
0.0
11
-9.658209
21
322.160110
31
0.0
0
LINE
8
Gear30
62
4
5
1aa
100
AcDbEntity
100
AcDbLine
10
-9.658209
20
322.160110
30
0.0
11
-9.510889
21
324.128045
31
0.0
0
LINE
8
Gear30
62
4
5
1ab
100
AcDbEntity
100
AcDbLine
10
-9.510889
20
324.128045
30
0.0
11
-8.251049
21
324.537268
31
0.0
0
LINE
8
Gear30
62
4
5
1ac
100
AcDbEntity
100
AcDbLine
10
-8.251049
20
324.537268
30
0.0
11
-6.975122
21
323.031894
31
0.0
0
LINE
8
Gear30
62
4
5
1ad
100
AcDbEntity
100
AcDbLine
10
-6.975122
20
323.031894
30
0.0
11
-6.189133
21
321.557001
31
0.0
0
LINE
8
Gear30
62
4
5
1ae
100
AcDbEntity
100
AcDbLine
10
-6.189133
20
321.557001
30
0.0
11
-6.147364
21
321.390772
31
0.0
0
LINE
8
Gear30
62
4
5
1af
100
AcDbEntity
100
AcDbLine
10
-6.147364
20
321.390772
30
0.0
11
-4.304736
21
321.782496
31
0.0
0
LINE
8
Gear30
62
4
5
1b0
100
AcDbEntity
100
AcDbLine
10
-4.304736
20
321.782496
30
0.0
11
-4.334087
21
321.951265
31
0.0
0
LINE
8
Gear30
62
4
5
1b1
100
AcDbEntity
100
AcDbLine
10
-4.334087
20
321.951265
30
0.0
11
-4.215836
21
323.618352
31
0.0
0
LINE
8
Gear30
62
4
5
1b2
100
AcDbEntity
100
AcDbLine
10
-4.215836
20
323.618352
30
0.0
11
-3.662962
21
325.512628
31
0.0
0
LINE
8
Gear30
62
4
5
1b3
100
AcDbEntity
100
AcDbLine
10
-3.662962
20
325.512628
30
0.0
11
-2.345267
21
325.651199
31
0.0
0
LINE
8
Gear30
62
4
5
1b4
100
AcDbEntity
100
AcDbLine
10
-2.345267
20
325.651199
30
0.0
11
-1.410547
21
323.913274
31
0.0
0
LINE
8
Gear30
62
4
5
1b5
100
AcDbEntity
100
AcDbLine
10
-1.410547
20
323.913274
30
0.0
11
-0.948267
21
322.307148
31
0.0
0
LINE
8
Gear30
62
4
5
1b6
100
AcDbEntity
100
AcDbLine
10
-0.948267
20
322.307148
30
0.0
11
-0.942058
21
322.135839
31
0.0
0
LINE
8
Gear30
62
4
5
1b7
100
AcDbEntity
100
AcDbLine
10
-0.942058
20
322.135839
30
0.0
11
0.942058
21
322.135839
31
0.0
0
LINE
8
Gear30
62
4
5
1b8
100
AcDbEntity
100
AcDbLine
10
0.942058
20
322.135839
30
0.0
11
0.948267
21
322.307148
31
0.0
0
LINE
8
Gear30
62
4
5
1b9
100
AcDbEntity
100
AcDbLine
10
0.948267
20
322.307148
30
0.0
11
1.410547
21
323.913274
31
0.0
0
LINE
8
Gear30
62
4
5
1ba
100
AcDbEntity
100
AcDbLine
10
1.410547
20
323.913274
30
0.0
11
2.345267
21
325.651199
31
0.0
0
LINE
8
Gear30
62
4
5
1bb
100
AcDbEntity
100
AcDbLine
10
2.345267
20
325.651199
30
0.0
11
3.662962
21
325.512628
31
0.0
0
LINE
8
Gear30
62
4
5
1bc
100
AcDbEntity
100
AcDbLine
10
3.662962
20
325.512628
30
0.0
11
4.215836
21
323.618352
31
0.0
0
LINE
8
Gear30
62
4
5
1bd
100
AcDbEntity
100
AcDbLine
10
4.215836
20
323.618352
30
0.0
11
4.334087
21
321.951265
31
0.0
0
LINE
8
Gear30
62
4
5
1be
100
AcDbEntity
100
AcDbLine
10
4.334087
20
321.951265
30
0.0
11
4.304736
21
321.782496
31
0.0
0
LINE
8
Gear30
62
4
5
1bf
100
AcDbEntity
100
AcDbLine
10
4.304736
20
321.782496
30
0.0
11
6.147364
21
321.390772
31
0.0
0
LINE
8
Gear30
62
4
5
1c0
100
AcDbEntity
100
AcDbLine
10
6.147364
20
321.390772
30
0.0
11
6.189133
21
321.557001
31
0.0
0
LINE
8
Gear30
62
4
5
1c1
100
AcDbEntity
100
AcDbLine
10
6.189133
20
321.557001
30
0.0
11
6.975122
21
323.031894
31
0.0
0
LINE
8
Gear30
62
4
5
1c2
100
AcDbEntity
100
AcDbLine
10
6.975122
20
323.031894
30
0.0
11
8.251049
21
324.537268
31
0.0
0
LINE
8
Gear30
62
4
5
1c3
100
AcDbEntity
100
AcDbLine
10
8.251049
20
324.537268
30
0.0
11
9.510889
21
324.128045
31
0.0
0
LINE
8
Gear30
62
4
5
1c4
100
AcDbEntity
100
AcDbLine
10
9.510889
20
324.128045
30
0.0
11
9.658209
21
322.160110
31
0.0
0
LINE
8
Gear30
62
4
5
1c5
100
AcDbEntity
100
AcDbLine
10
9.658209
20
322.160110
30
0.0
11
9.427069
21
320.504876
31
0.0
0
LINE
8
Gear30
62
4
5
1c6
100
AcDbEntity
100
AcDbLine
10
9.427069
20
320.504876
30
0.0
11
9.363287
21
320.345985
31
0.0
0
LINE
8
Gear30
62
4
5
1c7
100
AcDbEntity
100
AcDbLine
10
9.363287
20
320.345985
30
0.0
11
11.084278
21
319.579752
31
0.0
0
LINE
8
Gear30
62
4
5
1c8
100
AcDbEntity
100
AcDbLine
10
11.084278
20
319.579752
30
0.0
11
11.159631
21
319.733563
31
0.0
0
LINE
8
Gear30
62
4
5
1c9
100
AcDbEntity
100
AcDbLine
10
11.159631
20
319.733563
30
0.0
11
12.235180
21
321.012876
31
0.0
0
LINE
8
Gear30
62
4
5
1ca
100
AcDbEntity
100
AcDbLine
10
12.235180
20
321.012876
30
0.0
11
13.795869
21
322.220223
31
0.0
0
LINE
8
Gear30
62
4
5
1cb
100
AcDbEntity
100
AcDbLine
10
13.795869
20
322.220223
30
0.0
11
14.943384
21
321.557848
31
0.0
0
LINE
8
Gear30
62
4
5
1cc
100
AcDbEntity
100
AcDbLine
10
14.943384
20
321.557848
30
0.0
11
14.678096
21
319.602330
31
0.0
0
LINE
8
Gear30
62
4
5
1cd
100
AcDbEntity
100
AcDbLine
10
14.678096
20
319.602330
30
0.0
11
14.108007
21
318.031481
31
0.0
0
LINE
8
Gear30
62
4
5
1ce
100
AcDbEntity
100
AcDbLine
10
14.108007
20
318.031481
30
0.0
11
14.012616
21
317.888959
31
0.0
0
LINE
8
Gear30
62
4
5
1cf
100
AcDbEntity
100
AcDbLine
10
14.012616
20
317.888959
30
0.0
11
15.536616
21
316.781801
31
0.0
0
LINE
8
Gear30
62
4
5
1d0
100
AcDbEntity
100
AcDbLine
10
15.536616
20
316.781801
30
0.0
11
15.642449
21
316.916421
31
0.0
0
LINE
8
Gear30
62
4
5
1d1
100
AcDbEntity
100
AcDbLine
10
15.642449
20
316.916421
30
0.0
11
16.960427
21
317.944274
31
0.0
0
LINE
8
Gear30
62
4
5
1d2
100
AcDbEntity
100
AcDbLine
10
16.960427
20
317.944274
30
0.0
11
18.738144
21
318.800536
31
0.0
0
LINE
8
Gear30
62
4
5
1d3
100
AcDbEntity
100
AcDbLine
10
18.738144
20
318.800536
30
0.0
11
19.722536
21
317.914359
31
0.0
0
LINE
8
Gear30
62
4
5
1d4
100
AcDbEntity
100
AcDbLine
10
19.722536
20
317.914359
30
0.0
11
19.056773
21
316.056772
31
0.0
0
LINE
8
Gear30
62
4
5
1d5
100
AcDbEntity
100
AcDbLine
10
19.056773
20
316.056772
30
0.0
11
18.172289
21
314.638605
31
0.0
0
LINE
8
Gear30
62
4
5
1d6
100
AcDbEntity
100
AcDbLine
10
18.172289
20
314.638605
30
0.0
11
18.049240
21
314.519225
31
0.0
0
LINE
8
Gear30
62
4
5
1d7
100
AcDbEntity
100
AcDbLine
10
18.049240
20
314.519225
30
0.0
11
19.309927
21
313.119121
31
0.0
0
LINE
8
Gear30
62
4
5
1d8
100
AcDbEntity
100
AcDbLine
10
19.309927
20
313.119121
30
0.0
11
19.441442
21
313.229188
31
0.0
0
LINE
8
Gear30
62
4
5
1d9
100
AcDbEntity
100
AcDbLine
10
19.441442
20
313.229188
30
0.0
11
20.944276
21
313.960425
31
0.0
0
LINE
8
Gear30
62
4
5
1da
100
AcDbEntity
100
AcDbLine
10
20.944276
20
313.960425
30
0.0
11
22.861129
21
314.428350
31
0.0
0
LINE
8
Gear30
62
4
5
1db
100
AcDbEntity
100
AcDbLine
10
22.861129
20
314.428350
30
0.0
11
23.639780
21
313.356752
31
0.0
0
LINE
8
Gear30
62
4
5
1dc
100
AcDbEntity
100
AcDbLine
10
23.639780
20
313.356752
30
0.0
11
22.602331
21
311.678094
31
0.0
0
LINE
8
Gear30
62
4
5
1dd
100
AcDbEntity
100
AcDbLine
10
22.602331
20
311.678094
30
0.0
11
21.442398
21
310.474981
31
0.0
0
LINE
8
Gear30
62
4
5
1de
100
AcDbEntity
100
AcDbLine
10
21.442398
20
310.474981
30
0.0
11
21.297336
21
310.383541
31
0.0
0
LINE
8
Gear30
62
4
5
1df
100
AcDbEntity
100
AcDbLine
10
21.297336
20
310.383541
30
0.0
11
22.239393
21
308.752296
31
0.0
0
LINE
8
Gear30
62
4
5
1e0
100
AcDbEntity
100
AcDbLine
10
22.239393
20
308.752296
30
0.0
11
22.390947
21
308.832165
31
0.0
0
LINE
8
Gear30
62
4
5
1e1
100
AcDbEntity
100
AcDbLine
10
22.390947
20
308.832165
30
0.0
11
24.012878
21
309.235179
31
0.0
0
LINE
8
Gear30
62
4
5
1e2
100
AcDbEntity
100
AcDbLine
10
24.012878
20
309.235179
30
0.0
11
25.985329
21
309.294445
31
0.0
0
LINE
8
Gear30
62
4
5
1e3
100
AcDbEntity
100
AcDbLine
10
25.985329
20
309.294445
30
0.0
11
26.524091
21
308.084276
31
0.0
0
LINE
8
Gear30
62
4
5
1e4
100
AcDbEntity
100
AcDbLine
10
26.524091
20
308.084276
30
0.0
11
25.160111
21
306.658208
31
0.0
0
LINE
8
Gear30
62
4
5
1e5
100
AcDbEntity
100
AcDbLine
10
25.160111
20
306.658208
30
0.0
11
23.775529
21
305.722359
31
0.0
0
LINE
8
Gear30
62
4
5
1e6
100
AcDbEntity
100
AcDbLine
10
23.775529
20
305.722359
30
0.0
11
23.614662
21
305.663374
31
0.0
0
LINE
8
Gear30
62
4
5
1e7
100
AcDbEntity
100
AcDbLine
10
23.614662
20
305.663374
30
0.0
11
24.196604
21
303.871545
31
0.0
0
LINE
8
Gear30
62
4
5
1e8
100
AcDbEntity
100
AcDbLine
10
24.196604
20
303.871545
30
0.0
11
24.361704
21
303.918394
31
0.0
0
LINE
8
Gear30
62
4
5
1e9
100
AcDbEntity
100
AcDbLine
10
24.361704
20
303.918394
30
0.0
11
26.031896
21
303.975121
31
0.0
0
LINE
8
Gear30
62
4
5
1ea
100
AcDbEntity
100
AcDbLine
10
26.031896
20
303.975121
30
0.0
11
27.973584
21
303.623190
31
0.0
0
LINE
8
Gear30
62
4
5
1eb
100
AcDbEntity
100
AcDbLine
10
27.973584
20
303.623190
30
0.0
11
28.249033
21
302.327225
31
0.0
0
LINE
8
Gear30
62
4
5
1ec
100
AcDbEntity
100
AcDbLine
10
28.249033
20
302.327225
30
0.0
11
26.618353
21
301.215834
31
0.0
0
LINE
8
Gear30
62
4
5
1ed
100
AcDbEntity
100
AcDbLine
10
26.618353
20
301.215834
30
0.0
11
25.069518
21
300.588454
31
0.0
0
LINE
8
Gear30
62
4
5
1ee
100
AcDbEntity
100
AcDbLine
10
25.069518
20
300.588454
30
0.0
11
24.899620
21
300.564183
31
0.0
0
LINE
8
Gear30
62
4
5
1ef
100
AcDbEntity
100
AcDbLine
10
24.899620
20
300.564183
30
0.0
11
25.096611
21
298.690792
31
0.0
  0
ENDSEC
  0
SECTION
  2
OBJECTS
  0
DICTIONARY
  5
C
330
0
100
AcDbDictionary
  3
ACAD_GROUP
350
D
  3
ACAD_MLINESTYLE
350
17
  0
DICTIONARY
  5
D
330
C
100
AcDbDictionary
  0
DICTIONARY
  5
1A
330
C
100
AcDbDictionary
  0
DICTIONARY
  5
17
330
C
100
AcDbDictionary
  3
STANDARD
350
18
  0
DICTIONARY
  5
19
330
C
100
AcDbDictionary
  0
ENDSEC
  0
EOF
