  0
SECTION
  2
HEADER
  9
$ACADVER
  1
AC1009
  9
$DWGCODEPAGE
  3
ansi_1252
  9
$INSBASE
 10
0.0
 20
0.0
 30
0.0
  9
$EXTMIN
 10
10.0
 20
4.877759999999995
 30
0.0
  9
$EXTMAX
 10
786.0025132444703
 20
148.73952
 30
0.0
  9
$LIMMIN
 10
0.0
 20
0.0
  9
$LIMMAX
 10
12.0
 20
9.0
  9
$ORTHOMODE
 70
     0
  9
$REGENMODE
 70
     1
  9
$FILLMODE
 70
     1
  9
$QTEXTMODE
 70
     0
  9
$MIRRTEXT
 70
     1
  9
$DRAGMODE
 70
     2
  9
$LTSCALE
 40
1.0
  9
$OSMODE
 70
    37
  9
$ATTMODE
 70
     1
  9
$TEXTSIZE
 40
0.2
  9
$TRACEWID
 40
0.05
  9
$TEXTSTYLE
  7
STANDARD
  9
$CLAYER
  8
0
  9
$CELTYPE
  6
BYLAYER
  9
$CECOLOR
 62
   256
  9
$DIMSCALE
 40
1.0
  9
$DIMASZ
 40
0.18
  9
$DIMEXO
 40
0.0625
  9
$DIMDLI
 40
0.38
  9
$DIMRND
 40
0.0
  9
$DIMDLE
 40
0.0
  9
$DIMEXE
 40
0.18
  9
$DIMTP
 40
0.0
  9
$DIMTM
 40
0.0
  9
$DIMTXT
 40
0.18
  9
$DIMCEN
 40
0.09
  9
$DIMTSZ
 40
0.0
  9
$DIMTOL
 70
     0
  9
$DIMLIM
 70
     0
  9
$DIMTIH
 70
     1
  9
$DIMTOH
 70
     1
  9
$DIMSE1
 70
     0
  9
$DIMSE2
 70
     0
  9
$DIMTAD
 70
     0
  9
$DIMZIN
 70
     0
  9
$DIMBLK
  1

  9
$DIMASO
 70
     1
  9
$DIMSHO
 70
     1
  9
$DIMPOST
  1

  9
$DIMAPOST
  1

  9
$DIMALT
 70
     0
  9
$DIMALTD
 70
     2
  9
$DIMALTF
 40
25.4
  9
$DIMLFAC
 40
1.0
  9
$DIMTOFL
 70
     0
  9
$DIMTVP
 40
0.0
  9
$DIMTIX
 70
     0
  9
$DIMSOXD
 70
     0
  9
$DIMSAH
 70
     0
  9
$DIMBLK1
  1

  9
$DIMBLK2
  1

  9
$DIMSTYLE
  2
STANDARD
  9
$DIMCLRD
 70
     0
  9
$DIMCLRE
 70
     0
  9
$DIMCLRT
 70
     0
  9
$DIMTFAC
 40
1.0
  9
$DIMGAP
 40
0.09
  9
$LUNITS
 70
     2
  9
$LUPREC
 70
     4
  9
$SKETCHINC
 40
0.1
  9
$FILLETRAD
 40
0.5
  9
$AUNITS
 70
     0
  9
$AUPREC
 70
     0
  9
$MENU
  1
.
  9
$ELEVATION
 40
0.0
  9
$PELEVATION
 40
0.0
  9
$THICKNESS
 40
0.0
  9
$LIMCHECK
 70
     0
  9
$CHAMFERA
 40
0.5
  9
$CHAMFERB
 40
0.5
  9
$SKPOLY
 70
     0
  9
$TDCREATE
 40
2454910.5
  9
$TDUPDATE
 40
2456505.494309225
  9
$TDINDWG
 40
0.0000000116
  9
$TDUSRTIMER
 40
0.0000000116
  9
$USRTIMER
 70
     1
  9
$ANGBASE
 50
0.0
  9
$ANGDIR
 70
     0
  9
$PDMODE
 70
     0
  9
$PDSIZE
 40
0.0
  9
$PLINEWID
 40
0.0
  9
$COORDS
 70
     1
  9
$SPLFRAME
 70
     0
  9
$SPLINETYPE
 70
     6
  9
$SPLINESEGS
 70
     8
  9
$ATTDIA
 70
     0
  9
$ATTREQ
 70
     1
  9
$HANDLING
 70
     1
  9
$HANDSEED
  5
7BE
  9
$SURFTAB1
 70
     6
  9
$SURFTAB2
 70
     6
  9
$SURFTYPE
 70
     6
  9
$SURFU
 70
     6
  9
$SURFV
 70
     6
  9
$UCSNAME
  2

  9
$UCSORG
 10
0.0
 20
0.0
 30
0.0
  9
$UCSXDIR
 10
1.0
 20
0.0
 30
0.0
  9
$UCSYDIR
 10
0.0
 20
1.0
 30
0.0
  9
$PUCSNAME
  2

  9
$PUCSORG
 10
0.0
 20
0.0
 30
0.0
  9
$PUCSXDIR
 10
1.0
 20
0.0
 30
0.0
  9
$PUCSYDIR
 10
0.0
 20
1.0
 30
0.0
  9
$USERI1
 70
     0
  9
$USERI2
 70
     0
  9
$USERI3
 70
     0
  9
$USERI4
 70
     0
  9
$USERI5
 70
     0
  9
$USERR1
 40
0.0
  9
$USERR2
 40
0.0
  9
$USERR3
 40
0.0
  9
$USERR4
 40
0.0
  9
$USERR5
 40
0.0
  9
$WORLDVIEW
 70
     1
  9
$SHADEDGE
 70
     3
  9
$SHADEDIF
 70
    70
  9
$TILEMODE
 70
     1
  9
$MAXACTVP
 70
    64
  9
$PLIMCHECK
 70
     0
  9
$PEXTMIN
 10
1.000000000000000E+20
 20
1.000000000000000E+20
 30
1.000000000000000E+20
  9
$PEXTMAX
 10
-1.000000000000000E+20
 20
-1.000000000000000E+20
 30
-1.000000000000000E+20
  9
$PLIMMIN
 10
0.0
 20
0.0
  9
$PLIMMAX
 10
12.0
 20
9.0
  9
$UNITMODE
 70
     0
  9
$VISRETAIN
 70
     1
  9
$PLINEGEN
 70
     0
  9
$PSLTSCALE
 70
     1
  0
ENDSEC
  0
SECTION
  2
TABLES
  0
TABLE
  2
VPORT
 70
     1
  0
VPORT
  2
*ACTIVE
 70
     0
 10
0.0
 20
0.0
 11
1.0
 21
1.0
 12
10.42990654205607
 22
4.5
 13
0.0
 23
0.0
 14
0.5
 24
0.5
 15
0.5
 25
0.5
 16
0.0
 26
0.0
 36
1.0
 17
0.0
 27
0.0
 37
0.0
 40
9.0
 41
1.972972972850329
 42
50.0
 43
0.0
 44
0.0
 50
0.0
 51
0.0
 71
     0
 72
   100
 73
     1
 74
     3
 75
     0
 76
     0
 77
     0
 78
     0
  0
ENDTAB
  0
TABLE
  2
LTYPE
 70
     2
  0
LTYPE
  2
CONTINUOUS
 70
     0
  3
Solid line
 72
    65
 73
     0
 40
0.0
  0
LTYPE
  2
CONTINUOUS2
 70
     0
  3
Solid Line
 72
    65
 73
     0
 40
0.0
  0
ENDTAB
  0
TABLE
  2
LAYER
 70
     2
  0
LAYER
  2
0
 70
     0
 62
     7
  6
CONTINUOUS
  0
LAYER
  2
LATERAL
 70
     0
 62
     1
  6
CONTINUOUS
  0
ENDTAB
  0
TABLE
  2
STYLE
 70
     1
  0
STYLE
  2
STANDARD
 70
     0
 40
0.0
 41
1.0
 50
0.0
 71
     0
 42
0.2
  3
txt
  4

  0
ENDTAB
  0
TABLE
  2
VIEW
 70
     0
  0
ENDTAB
  0
TABLE
  2
UCS
 70
     0
  0
ENDTAB
  0
TABLE
  2
APPID
 70
     1
  0
APPID
  2
ACAD
 70
     0
  0
ENDTAB
  0
TABLE
  2
DIMSTYLE
 70
     1
  0
DIMSTYLE
  2
STANDARD
 70
     0
  3

  4

  5

  6

  7

 40
1.0
 41
0.18
 42
0.0625
 43
0.38
 44
0.18
 45
0.0
 46
0.0
 47
0.0
 48
0.0
140
0.18
141
0.09
142
0.0
143
25.4
144
1.0
145
0.0
146
1.0
147
0.09
 71
     0
 72
     0
 73
     1
 74
     1
 75
     0
 76
     0
 77
     0
 78
     0
170
     0
171
     2
172
     0
173
     0
174
     0
175
     0
176
     0
177
     0
178
     0
  0
ENDTAB
  0
ENDSEC
  0
SECTION
  2
BLOCKS
  0
BLOCK
  8
0
  2
$MODEL_SPACE
 70
     0
 10
0.0
 20
0.0
 30
0.0
  3
$MODEL_SPACE
  1

  0
ENDBLK
  5
21
  8
0
  0
BLOCK
 67
     1
  8
0
  2
$PAPER_SPACE
 70
     0
 10
0.0
 20
0.0
 30
0.0
  3
$PAPER_SPACE
  1

  0
ENDBLK
  5
1D
 67
     1
  8
0
  0
ENDSEC
  0
SECTION
  2
ENTITIES
  0
POLYLINE
  5
41
  8
LATERAL
 66
     1
 10
0.0
 20
0.0
 30
0.0
 70
     1
  0
VERTEX
  5
71
  8
LATERAL
 10
41.0959088894045
 20
70.58876300453957
 30
0.0
  0
VERTEX
  5
72
  8
LATERAL
 10
64.0959088894045
 20
70.58876300453957
 30
0.0
  0
VERTEX
  5
73
  8
LATERAL
 10
64.0959088894045
 20
79.58876300453957
 30
0.0
  0
VERTEX
  5
74
  8
LATERAL
 10
41.0959088894045
 20
79.58876300453957
 30
0.0
  0
SEQEND
  5
75
  8
LATERAL
  0
POLYLINE
  5
42
  8
LATERAL
 66
     1
 10
0.0
 20
0.0
 30
0.0
 70
     1
  0
VERTEX
  5
76
  8
LATERAL
 10
43.85736613010017
 20
117.6499426028633
 30
0.0
  0
VERTEX
  5
77
  8
LATERAL
 10
60.85736613010017
 20
117.6499426028633
 30
0.0
  0
VERTEX
  5
78
  8
LATERAL
 10
60.85736613010017
 20
124.6499426028633
 30
0.0
  0
VERTEX
  5
79
  8
LATERAL
 10
43.85736613010017
 20
124.6499426028633
 30
0.0
  0
SEQEND
  5
7A
  8
LATERAL
  0
POLYLINE
  5
43
  8
LATERAL
 66
     1
 10
0.0
 20
0.0
 30
0.0
  0
VERTEX
  5
7B
  8
LATERAL
 10
74.6
 20
10.0
 30
0.0
  0
VERTEX
  5
7C
  8
LATERAL
 10
74.86
 20
141.488
 30
0.0
  0
SEQEND
  5
7D
  8
LATERAL
  0
POLYLINE
  5
44
  8
LATERAL
 66
     1
 10
0.0
 20
0.0
 30
0.0
  0
VERTEX
  5
7E
  8
LATERAL
 10
263.8
 20
10.0
 30
0.0
  0
VERTEX
  5
7F
  8
LATERAL
 10
264.06
 20
141.488
 30
0.0
  0
SEQEND
  5
80
  8
LATERAL
  0
POLYLINE
  5
45
  8
LATERAL
 66
     1
 10
0.0
 20
0.0
 30
0.0
  0
VERTEX
  5
81
  8
LATERAL
 10
453.0
 20
10.0
 30
0.0
  0
VERTEX
  5
82
  8
LATERAL
 10
453.26
 20
141.488
 30
0.0
  0
SEQEND
  5
83
  8
LATERAL
  0
POLYLINE
  5
46
  8
LATERAL
 66
     1
 10
0.0
 20
0.0
 30
0.0
  0
VERTEX
  5
84
  8
LATERAL
 10
642.2
 20
10.0
 30
0.0
  0
VERTEX
  5
85
  8
LATERAL
 10
642.46
 20
141.488
 30
0.0
  0
SEQEND
  5
86
  8
LATERAL
  0
POLYLINE
  5
47
  8
LATERAL
 66
     1
 10
0.0
 20
0.0
 30
0.0
 70
     1
  0
VERTEX
  5
87
  8
LATERAL
 10
10.0
 20
10.0
 30
0.0
  0
VERTEX
  5
88
  8
LATERAL
 10
10.0
 20
13.70200712026188
 30
0.0
  0
VERTEX
  5
89
  8
LATERAL
 10
10.0
 20
14.62750890032736
 30
0.0
  0
VERTEX
  5
8A
  8
LATERAL
 10
10.0
 20
14.85888434534375
 30
0.0
  0
VERTEX
  5
8B
  8
LATERAL
 10
10.0
 20
14.97457206785195
 30
0.0
  0
VERTEX
  5
8C
  8
LATERAL
 10
10.0
 20
15.03241592910602
 30
0.0
  0
VERTEX
  5
8D
  8
LATERAL
 10
10.0
 20
15.09096520330228
 30
0.0
  0
VERTEX
  5
8E
  8
LATERAL
 10
10.0
 20
15.55653774510344
 30
0.0
  0
VERTEX
  5
8F
  8
LATERAL
 10
10.0
 20
17.41671167348204
 30
0.0
  0
VERTEX
  5
90
  8
LATERAL
 10
10.0
 20
17.88228421528328
 30
0.0
  0
VERTEX
  5
91
  8
LATERAL
 10
10.0
 20
18.11507048618385
 30
0.0
  0
VERTEX
  5
92
  8
LATERAL
 10
10.0
 20
18.21237975973312
 30
0.0
  0
VERTEX
  5
93
  8
LATERAL
 10
10.00104776704154
 20
18.28624733616727
 30
0.0
  0
VERTEX
  5
94
  8
LATERAL
 10
10.03917905824483
 20
19.03046495068313
 30
0.0
  0
VERTEX
  5
95
  8
LATERAL
 10
10.12975875376935
 20
19.76370596266247
 30
0.0
  0
VERTEX
  5
96
  8
LATERAL
 10
10.19284807753047
 20
20.11278074879387
 30
0.0
  0
VERTEX
  5
97
  8
LATERAL
 10
10.2710501642822
 20
20.46814846254248
 30
0.0
  0
VERTEX
  5
98
  8
LATERAL
 10
10.36199792016998
 20
20.81910636716492
 30
0.0
  0
VERTEX
  5
99
  8
LATERAL
 10
10.46631818581511
 20
21.1641168882986
 30
0.0
  0
VERTEX
  5
9A
  8
LATERAL
 10
10.58421232452918
 20
21.50394337813147
 30
0.0
  0
VERTEX
  5
9B
  8
LATERAL
 10
10.71562439032948
 20
21.8374123604985
 30
0.0
  0
VERTEX
  5
9C
  8
LATERAL
 10
10.86133063283421
 20
22.16635658389767
 30
0.0
  0
VERTEX
  5
9D
  8
LATERAL
 10
11.02057717754076
 20
22.48668852537195
 30
0.0
  0
VERTEX
  5
9E
  8
LATERAL
 10
11.19346346726491
 20
22.79741908310212
 30
0.0
  0
VERTEX
  5
9F
  8
LATERAL
 10
11.37995429533078
 20
23.09730800782338
 30
0.0
  0
VERTEX
  5
A0
  8
LATERAL
 10
11.58052617687736
 20
23.3861046399465
 30
0.0
  0
VERTEX
  5
A1
  8
LATERAL
 10
11.79457255016177
 20
23.66157516938772
 30
0.0
  0
VERTEX
  5
A2
  8
LATERAL
 10
12.02211349597121
 20
23.92274290252714
 30
0.0
  0
VERTEX
  5
A3
  8
LATERAL
 10
12.26341044162871
 20
24.16887837666705
 30
0.0
  0
VERTEX
  5
A4
  8
LATERAL
 10
12.51593176733968
 20
24.39703882154475
 30
0.0
  0
VERTEX
  5
A5
  8
LATERAL
 10
12.77981215105865
 20
24.60521112425635
 30
0.0
  0
VERTEX
  5
A6
  8
LATERAL
 10
13.05357806722679
 20
24.79185651437318
 30
0.0
  0
VERTEX
  5
A7
  8
LATERAL
 10
13.33777569083009
 20
24.95652438379021
 30
0.0
  0
VERTEX
  5
A8
  8
LATERAL
 10
13.63082984371511
 20
25.0978958120687
 30
0.0
  0
VERTEX
  5
A9
  8
LATERAL
 10
13.93090542185894
 20
25.21396344379275
 30
0.0
  0
VERTEX
  5
AA
  8
LATERAL
 10
14.23771681174492
 20
25.30400591691145
 30
0.0
  0
VERTEX
  5
AB
  8
LATERAL
 10
14.55356019356702
 20
25.36706396512114
 30
0.0
  0
VERTEX
  5
AC
  8
LATERAL
 10
14.86453931276162
 20
25.40086026117597
 30
0.0
  0
VERTEX
  5
AD
  8
LATERAL
 10
15.17523093450757
 20
25.40679573447355
 30
0.0
  0
VERTEX
  5
AE
  8
LATERAL
 10
15.48559917380464
 20
25.38505597910292
 30
0.0
  0
VERTEX
  5
AF
  8
LATERAL
 10
15.79585812204175
 20
25.3355341927105
 30
0.0
  0
VERTEX
  5
B0
  8
LATERAL
 10
16.10120822303304
 20
25.25921399720736
 30
0.0
  0
VERTEX
  5
B1
  8
LATERAL
 10
16.40071274906006
 20
25.15681988402124
 30
0.0
  0
VERTEX
  5
B2
  8
LATERAL
 10
16.70737339261495
 20
25.02298317051524
 30
0.0
  0
VERTEX
  5
B3
  8
LATERAL
 10
16.84592390964121
 20
24.95236014432681
 30
0.0
  0
VERTEX
  5
B4
  8
LATERAL
 10
16.9816379635887
 20
24.87690313033198
 30
0.0
  0
VERTEX
  5
B5
  8
LATERAL
 10
17.26506894890474
 20
24.69747332923346
 30
0.0
  0
VERTEX
  5
B6
  8
LATERAL
 10
17.53075908429366
 20
24.50143295483721
 30
0.0
  0
VERTEX
  5
B7
  8
LATERAL
 10
17.79425633650214
 20
24.2784272528535
 30
0.0
  0
VERTEX
  5
B8
  8
LATERAL
 10
17.91453761624473
 20
24.1661267215298
 30
0.0
  0
VERTEX
  5
B9
  8
LATERAL
 10
18.0382104545123
 20
24.0436604475381
 30
0.0
  0
VERTEX
  5
BA
  8
LATERAL
 10
18.09284329951618
 20
23.98626836793807
 30
0.0
  0
VERTEX
  5
BB
  8
LATERAL
 10
18.15291969217662
 20
23.92128777995838
 30
0.0
  0
VERTEX
  5
BC
  8
LATERAL
 10
18.2880580016091
 20
23.77152109682925
 30
0.0
  0
VERTEX
  5
BD
  8
LATERAL
 10
18.43807854485942
 20
23.60758112172448
 30
0.0
  0
VERTEX
  5
BE
  8
LATERAL
 10
18.60611030836446
 20
23.43536946360632
 30
0.0
  0
VERTEX
  5
BF
  8
LATERAL
 10
18.94247380501304
 20
23.11913969620582
 30
0.0
  0
VERTEX
  5
C0
  8
LATERAL
 10
19.30852112116816
 20
22.81875892553967
 30
0.0
  0
VERTEX
  5
C1
  8
LATERAL
 10
19.69420430444427
 20
22.54331706742619
 30
0.0
  0
VERTEX
  5
C2
  8
LATERAL
 10
20.10220104420625
 20
22.29416980649785
 30
0.0
  0
VERTEX
  5
C3
  8
LATERAL
 10
20.53187625314524
 20
22.07484380457981
 30
0.0
  0
VERTEX
  5
C4
  8
LATERAL
 10
20.98127246081401
 20
21.88937723283038
 30
0.0
  0
VERTEX
  5
C5
  8
LATERAL
 10
21.44955806741496
 20
21.73953009876379
 30
0.0
  0
VERTEX
  5
C6
  8
LATERAL
 10
21.93201960378576
 20
21.6304695558667
 30
0.0
  0
VERTEX
  5
C7
  8
LATERAL
 10
22.42769484801374
 20
21.56366348827794
 30
0.0
  0
VERTEX
  5
C8
  8
LATERAL
 10
22.92931357228952
 20
21.54190549336523
 30
0.0
  0
VERTEX
  5
C9
  8
LATERAL
 10
23.42296900810459
 20
21.56563659142849
 30
0.0
  0
VERTEX
  5
CA
  8
LATERAL
 10
23.90889267582111
 20
21.63306990745694
 30
0.0
  0
VERTEX
  5
CB
  8
LATERAL
 10
24.3847579165415
 20
21.74229146836498
 30
0.0
  0
VERTEX
  5
CC
  8
LATERAL
 10
24.84868051877936
 20
21.89128675907932
 30
0.0
  0
VERTEX
  5
CD
  8
LATERAL
 10
25.29860534666818
 20
22.07798809909252
 30
0.0
  0
VERTEX
  5
CE
  8
LATERAL
 10
25.72900088897529
 20
22.29838084204425
 30
0.0
  0
VERTEX
  5
CF
  8
LATERAL
 10
26.14155254532272
 20
22.5500790243002
 30
0.0
  0
VERTEX
  5
D0
  8
LATERAL
 10
26.53027513778682
 20
22.82856685173647
 30
0.0
  0
VERTEX
  5
D1
  8
LATERAL
 10
26.89499208093196
 20
23.12968172024443
 30
0.0
  0
VERTEX
  5
D2
  8
LATERAL
 10
27.23623861370936
 20
23.45107233361364
 30
0.0
  0
VERTEX
  5
D3
  8
LATERAL
 10
27.5543723113193
 20
23.78986045199167
 30
0.0
  0
VERTEX
  5
D4
  8
LATERAL
 10
27.85073394126323
 20
24.14430313068465
 30
0.0
  0
VERTEX
  5
D5
  8
LATERAL
 10
28.12457616076983
 20
24.51175468032966
 30
0.0
  0
VERTEX
  5
D6
  8
LATERAL
 10
28.37833980660537
 20
24.89100802876851
 30
0.0
  0
VERTEX
  5
D7
  8
LATERAL
 10
28.60989058762254
 20
25.27982367470872
 30
0.0
  0
VERTEX
  5
D8
  8
LATERAL
 10
28.82275791052655
 20
25.67649525428828
 30
0.0
  0
VERTEX
  5
D9
  8
LATERAL
 10
29.01670934707056
 20
26.0828124799466
 30
0.0
  0
VERTEX
  5
DA
  8
LATERAL
 10
29.1917476714176
 20
26.49494994439033
 30
0.0
  0
VERTEX
  5
DB
  8
LATERAL
 10
29.34871709537845
 20
26.91274917456144
 30
0.0
  0
VERTEX
  5
DC
  8
LATERAL
 10
29.48834505206298
 20
27.33612542234391
 30
0.0
  0
VERTEX
  5
DD
  8
LATERAL
 10
29.61001093085258
 20
27.7637494791918
 30
0.0
  0
VERTEX
  5
DE
  8
LATERAL
 10
29.71433833836079
 20
28.19350891086856
 30
0.0
  0
VERTEX
  5
DF
  8
LATERAL
 10
29.80212399355707
 20
28.62473669078213
 30
0.0
  0
VERTEX
  5
E0
  8
LATERAL
 10
29.87532400080431
 20
29.06629802481734
 30
0.0
  0
VERTEX
  5
E1
  8
LATERAL
 10
29.96890971823154
 20
29.9298952199149
 30
0.0
  0
VERTEX
  5
E2
  8
LATERAL
 10
30.0005196161726
 20
30.80546056927028
 30
0.0
  0
VERTEX
  5
E3
  8
LATERAL
 10
29.96880869041888
 20
31.68327665035736
 30
0.0
  0
VERTEX
  5
E4
  8
LATERAL
 10
29.87360178194956
 20
32.5565836562298
 30
0.0
  0
VERTEX
  5
E5
  8
LATERAL
 10
29.71645359797765
 20
33.41021869440124
 30
0.0
  0
VERTEX
  5
E6
  8
LATERAL
 10
29.60932913787417
 20
33.84937961471792
 30
0.0
  0
VERTEX
  5
E7
  8
LATERAL
 10
29.48755645937115
 20
34.27495529812154
 30
0.0
  0
VERTEX
  5
E8
  8
LATERAL
 10
29.34871570548432
 20
34.69750884863993
 30
0.0
  0
VERTEX
  5
E9
  8
LATERAL
 10
29.19174278182538
 20
35.1162411780108
 30
0.0
  0
VERTEX
  5
EA
  8
LATERAL
 10
29.01630984711767
 20
35.52950002462626
 30
0.0
  0
VERTEX
  5
EB
  8
LATERAL
 10
28.82210926803612
 20
35.93566044361273
 30
0.0
  0
VERTEX
  5
EC
  8
LATERAL
 10
28.60920384567419
 20
36.33333314102606
 30
0.0
  0
VERTEX
  5
ED
  8
LATERAL
 10
28.37633469354034
 20
36.72217322781967
 30
0.0
  0
VERTEX
  5
EE
  8
LATERAL
 10
28.12316534748345
 20
37.10083599973427
 30
0.0
  0
VERTEX
  5
EF
  8
LATERAL
 10
27.84899533114651
 20
37.46842765064798
 30
0.0
  0
VERTEX
  5
F0
  8
LATERAL
 10
27.55251108112282
 20
37.82252985033642
 30
0.0
  0
VERTEX
  5
F1
  8
LATERAL
 10
27.23438150099503
 20
38.16106125994497
 30
0.0
  0
VERTEX
  5
F2
  8
LATERAL
 10
26.8931879260773
 20
38.48231503335251
 30
0.0
  0
VERTEX
  5
F3
  8
LATERAL
 10
26.52893234862643
 20
38.78297572738779
 30
0.0
  0
VERTEX
  5
F4
  8
LATERAL
 10
26.14073794083845
 20
39.06126278751526
 30
0.0
  0
VERTEX
  5
F5
  8
LATERAL
 10
25.72963627442789
 20
39.31260180479615
 30
0.0
  0
VERTEX
  5
F6
  8
LATERAL
 10
25.29527950272279
 20
39.53440100736998
 30
0.0
  0
VERTEX
  5
F7
  8
LATERAL
 10
24.8436403821828
 20
39.72131532504238
 30
0.0
  0
VERTEX
  5
F8
  8
LATERAL
 10
24.38047526496177
 20
39.86967154824799
 30
0.0
  0
VERTEX
  5
F9
  8
LATERAL
 10
23.90512574993465
 20
39.97813633648244
 30
0.0
  0
VERTEX
  5
FA
  8
LATERAL
 10
23.42017453623441
 20
40.04485126612419
 30
0.0
  0
VERTEX
  5
FB
  8
LATERAL
 10
22.92873168126573
 20
40.06822511237824
 30
0.0
  0
VERTEX
  5
FC
  8
LATERAL
 10
22.43221197555772
 20
40.04776561463564
 30
0.0
  0
VERTEX
  5
FD
  8
LATERAL
 10
21.94947525535997
 20
39.98348502102724
 30
0.0
  0
VERTEX
  5
FE
  8
LATERAL
 10
21.69212705060238
 20
39.93129552495625
 30
0.0
  0
VERTEX
  5
FF
  8
LATERAL
 10
21.43957450655057
 20
39.86793428598244
 30
0.0
  0
VERTEX
  5
100
  8
LATERAL
 10
20.98054521120628
 20
39.72131149835766
 30
0.0
  0
VERTEX
  5
101
  8
LATERAL
 10
20.51859032156995
 20
39.52956486715732
 30
0.0
  0
VERTEX
  5
102
  8
LATERAL
 10
20.07747813952562
 20
39.30264449715969
 30
0.0
  0
VERTEX
  5
103
  8
LATERAL
 10
19.65863347965353
 20
39.04412078182486
 30
0.0
  0
VERTEX
  5
104
  8
LATERAL
 10
19.26308237207934
 20
38.75744027224209
 30
0.0
  0
VERTEX
  5
105
  8
LATERAL
 10
18.89036463793798
 20
38.44547388683873
 30
0.0
  0
VERTEX
  5
106
  8
LATERAL
 10
18.54700552201314
 20
38.11655510756532
 30
0.0
  0
VERTEX
  5
107
  8
LATERAL
 10
18.37838977704462
 20
37.93884733713571
 30
0.0
  0
VERTEX
  5
108
  8
LATERAL
 10
18.23156311108414
 20
37.77644814598817
 30
0.0
  0
VERTEX
  5
109
  8
LATERAL
 10
18.10339193027846
 20
37.63545984710197
 30
0.0
  0
VERTEX
  5
10A
  8
LATERAL
 10
17.98615289792463
 20
37.51538895406323
 30
0.0
  0
VERTEX
  5
10B
  8
LATERAL
 10
17.72328572215395
 20
37.27020889684801
 30
0.0
  0
VERTEX
  5
10C
  8
LATERAL
 10
17.45244272557807
 20
37.04904016165271
 30
0.0
  0
VERTEX
  5
10D
  8
LATERAL
 10
17.17713020885287
 20
36.85424493950777
 30
0.0
  0
VERTEX
  5
10E
  8
LATERAL
 10
16.89175420462038
 20
36.6831196197007
 30
0.0
  0
VERTEX
  5
10F
  8
LATERAL
 10
16.59332855768469
 20
36.53447631082626
 30
0.0
  0
VERTEX
  5
110
  8
LATERAL
 10
16.28371824403712
 20
36.41040660408223
 30
0.0
  0
VERTEX
  5
111
  8
LATERAL
 10
15.97304673952806
 20
36.31604213678568
 30
0.0
  0
VERTEX
  5
112
  8
LATERAL
 10
15.65755964156972
 20
36.24932176651838
 30
0.0
  0
VERTEX
  5
113
  8
LATERAL
 10
15.3397179741055
 20
36.21182306161992
 30
0.0
  0
VERTEX
  5
114
  8
LATERAL
 10
15.02201957169825
 20
36.20324125249318
 30
0.0
  0
VERTEX
  5
115
  8
LATERAL
 10
14.70502779381911
 20
36.22355607546129
 30
0.0
  0
VERTEX
  5
116
  8
LATERAL
 10
14.38829631258193
 20
36.27298974685083
 30
0.0
  0
VERTEX
  5
117
  8
LATERAL
 10
14.06749688860452
 20
36.35305060829403
 30
0.0
  0
VERTEX
  5
118
  8
LATERAL
 10
13.75469116771933
 20
36.46104972122935
 30
0.0
  0
VERTEX
  5
119
  8
LATERAL
 10
13.45203011940032
 20
36.59510346140978
 30
0.0
  0
VERTEX
  5
11A
  8
LATERAL
 10
13.15727902554079
 20
36.75541546517483
 30
0.0
  0
VERTEX
  5
11B
  8
LATERAL
 10
12.87179705639926
 20
36.93989675668314
 30
0.0
  0
VERTEX
  5
11C
  8
LATERAL
 10
12.59757221465759
 20
37.14655855827209
 30
0.0
  0
VERTEX
  5
11D
  8
LATERAL
 10
12.33508031058238
 20
37.37393117514601
 30
0.0
  0
VERTEX
  5
11E
  8
LATERAL
 10
12.0857397024555
 20
37.61962121120015
 30
0.0
  0
VERTEX
  5
11F
  8
LATERAL
 10
11.84962554344486
 20
37.88313306011984
 30
0.0
  0
VERTEX
  5
120
  8
LATERAL
 10
11.62699515669317
 20
38.16232534861936
 30
0.0
  0
VERTEX
  5
121
  8
LATERAL
 10
11.41890389511047
 20
38.45512005673073
 30
0.0
  0
VERTEX
  5
122
  8
LATERAL
 10
11.22480801278869
 20
38.76153940791154
 30
0.0
  0
VERTEX
  5
123
  8
LATERAL
 10
11.0447482774706
 20
39.07873698338003
 30
0.0
  0
VERTEX
  5
124
  8
LATERAL
 10
10.87957457061248
 20
39.40534376738221
 30
0.0
  0
VERTEX
  5
125
  8
LATERAL
 10
10.72882452576039
 20
39.74090794682018
 30
0.0
  0
VERTEX
  5
126
  8
LATERAL
 10
10.59257817528112
 20
40.08388071920885
 30
0.0
  0
VERTEX
  5
127
  8
LATERAL
 10
10.47167755595376
 20
40.43075788879709
 30
0.0
  0
VERTEX
  5
128
  8
LATERAL
 10
10.36418433092706
 20
40.78567634776093
 30
0.0
  0
VERTEX
  5
129
  8
LATERAL
 10
10.27005401255826
 20
41.1475072237982
 30
0.0
  0
VERTEX
  5
12A
  8
LATERAL
 10
10.18985873625275
 20
41.51297425412537
 30
0.0
  0
VERTEX
  5
12B
  8
LATERAL
 10
10.12364153733643
 20
41.88546987307323
 30
0.0
  0
VERTEX
  5
12C
  8
LATERAL
 10
10.07150431181992
 20
42.26200439734879
 30
0.0
  0
VERTEX
  5
12D
  8
LATERAL
 10
10.03358453493695
 20
42.64109686480437
 30
0.0
  0
VERTEX
  5
12E
  8
LATERAL
 10
10.00990038225916
 20
43.02184229461429
 30
0.0
  0
VERTEX
  5
12F
  8
LATERAL
 10
10.00045408005997
 20
43.40333134070437
 30
0.0
  0
VERTEX
  5
130
  8
LATERAL
 10
10.00523178929257
 20
43.78465202352278
 30
0.0
  0
VERTEX
  5
131
  8
LATERAL
 10
10.02420348775252
 20
44.16489137726337
 30
0.0
  0
VERTEX
  5
132
  8
LATERAL
 10
10.0573089370838
 20
44.54297838812225
 30
0.0
  0
VERTEX
  5
133
  8
LATERAL
 10
10.10481915950788
 20
44.91978463668368
 30
0.0
  0
VERTEX
  5
134
  8
LATERAL
 10
10.1666258320389
 20
45.29431686260367
 30
0.0
  0
VERTEX
  5
135
  8
LATERAL
 10
10.24277613620609
 20
45.66518651148736
 30
0.0
  0
VERTEX
  5
136
  8
LATERAL
 10
10.33345131634894
 20
46.03180363449775
 30
0.0
  0
VERTEX
  5
137
  8
LATERAL
 10
10.43771368572584
 20
46.39087655420561
 30
0.0
  0
VERTEX
  5
138
  8
LATERAL
 10
10.55651210955102
 20
46.74489109574446
 30
0.0
  0
VERTEX
  5
139
  8
LATERAL
 10
10.68851673415372
 20
47.08974528250588
 30
0.0
  0
VERTEX
  5
13A
  8
LATERAL
 10
10.83512593704916
 20
47.42700937156957
 30
0.0
  0
VERTEX
  5
13B
  8
LATERAL
 10
10.99631496152767
 20
47.75679693181222
 30
0.0
  0
VERTEX
  5
13C
  8
LATERAL
 10
11.17223907729465
 20
48.07756528492467
 30
0.0
  0
VERTEX
  5
13D
  8
LATERAL
 10
11.36283455253363
 20
48.38776679985832
 30
0.0
  0
VERTEX
  5
13E
  8
LATERAL
 10
11.56791048421121
 20
48.68572617983671
 30
0.0
  0
VERTEX
  5
13F
  8
LATERAL
 10
11.78726704358974
 20
48.96986717737582
 30
0.0
  0
VERTEX
  5
140
  8
LATERAL
 10
12.02071826701774
 20
49.23872857235614
 30
0.0
  0
VERTEX
  5
141
  8
LATERAL
 10
12.26812355401159
 20
49.49097715775231
 30
0.0
  0
VERTEX
  5
142
  8
LATERAL
 10
12.5289059243986
 20
49.72494530529969
 30
0.0
  0
VERTEX
  5
143
  8
LATERAL
 10
12.8013352708399
 20
49.93765003875869
 30
0.0
  0
VERTEX
  5
144
  8
LATERAL
 10
13.08553746731639
 20
50.12869263004908
 30
0.0
  0
VERTEX
  5
145
  8
LATERAL
 10
13.37871623076046
 20
50.29531062954802
 30
0.0
  0
VERTEX
  5
146
  8
LATERAL
 10
13.6797565336077
 20
50.43627282215593
 30
0.0
  0
VERTEX
  5
147
  8
LATERAL
 10
13.98864676057644
 20
50.55032890959188
 30
0.0
  0
VERTEX
  5
148
  8
LATERAL
 10
14.30340681565201
 20
50.6366710283381
 30
0.0
  0
VERTEX
  5
149
  8
LATERAL
 10
14.62703489525882
 20
50.69465899482052
 30
0.0
  0
VERTEX
  5
14A
  8
LATERAL
 10
14.95453246865168
 20
50.72273021539708
 30
0.0
  0
VERTEX
  5
14B
  8
LATERAL
 10
15.27477892555078
 20
50.72026711005359
 30
0.0
  0
VERTEX
  5
14C
  8
LATERAL
 10
15.59297944510661
 20
50.68855944187859
 30
0.0
  0
VERTEX
  5
14D
  8
LATERAL
 10
15.90871534746066
 20
50.62793483806804
 30
0.0
  0
VERTEX
  5
14E
  8
LATERAL
 10
16.2218017722895
 20
50.53849398376218
 30
0.0
  0
VERTEX
  5
14F
  8
LATERAL
 10
16.52936389954652
 20
50.42109312604349
 30
0.0
  0
VERTEX
  5
150
  8
LATERAL
 10
16.83746120566445
 20
50.27393564350003
 30
0.0
  0
VERTEX
  5
151
  8
LATERAL
 10
16.97719349350223
 20
50.19624664948983
 30
0.0
  0
VERTEX
  5
152
  8
LATERAL
 10
17.11631205350488
 20
50.11211566261073
 30
0.0
  0
VERTEX
  5
153
  8
LATERAL
 10
17.40437406214176
 20
49.91530311012595
 30
0.0
  0
VERTEX
  5
154
  8
LATERAL
 10
17.6715509584302
 20
49.70302557608866
 30
0.0
  0
VERTEX
  5
155
  8
LATERAL
 10
17.9341467366886
 20
49.4637479371648
 30
0.0
  0
VERTEX
  5
156
  8
LATERAL
 10
18.05243755505523
 20
49.34602310357494
 30
0.0
  0
VERTEX
  5
157
  8
LATERAL
 10
18.17619838382109
 20
49.21307211425715
 30
0.0
  0
VERTEX
  5
158
  8
LATERAL
 10
18.23872763412953
 20
49.14359516947006
 30
0.0
  0
VERTEX
  5
159
  8
LATERAL
 10
18.27161476080448
 20
49.10668104769209
 30
0.0
  0
VERTEX
  5
15A
  8
LATERAL
 10
18.31344572606133
 20
49.05972792341095
 30
0.0
  0
VERTEX
  5
15B
  8
LATERAL
 10
18.47827707655517
 20
48.88265662114441
 30
0.0
  0
VERTEX
  5
15C
  8
LATERAL
 10
18.81414224339608
 20
48.5520783131808
 30
0.0
  0
VERTEX
  5
15D
  8
LATERAL
 10
19.18061080662994
 20
48.23591337436937
 30
0.0
  0
VERTEX
  5
15E
  8
LATERAL
 10
19.5655214884531
 20
47.9477466058654
 30
0.0
  0
VERTEX
  5
15F
  8
LATERAL
 10
19.97237361276473
 20
47.68609502285722
 30
0.0
  0
VERTEX
  5
160
  8
LATERAL
 10
20.38016817621462
 20
47.46480677282511
 30
0.0
  0
VERTEX
  5
161
  8
LATERAL
 10
20.80426604616707
 20
47.27424117010924
 30
0.0
  0
VERTEX
  5
162
  8
LATERAL
 10
21.2450646961455
 20
47.1163005021852
 30
0.0
  0
VERTEX
  5
163
  8
LATERAL
 10
21.70107842663924
 20
46.99370223517889
 30
0.0
  0
VERTEX
  5
164
  8
LATERAL
 10
22.15370366208185
 20
46.91176250319171
 30
0.0
  0
VERTEX
  5
165
  8
LATERAL
 10
22.60967763517453
 20
46.86750062827257
 30
0.0
  0
VERTEX
  5
166
  8
LATERAL
 10
23.06812811781231
 20
46.86116074226916
 30
0.0
  0
VERTEX
  5
167
  8
LATERAL
 10
23.52866454236403
 20
46.89310476328004
 30
0.0
  0
VERTEX
  5
168
  8
LATERAL
 10
23.99671689820696
 20
46.96637985223221
 30
0.0
  0
VERTEX
  5
169
  8
LATERAL
 10
24.45324127975402
 20
47.07777362175494
 30
0.0
  0
VERTEX
  5
16A
  8
LATERAL
 10
24.89681636697196
 20
47.22533017804884
 30
0.0
  0
VERTEX
  5
16B
  8
LATERAL
 10
25.32741486406201
 20
47.40750748564062
 30
0.0
  0
VERTEX
  5
16C
  8
LATERAL
 10
25.75737285737432
 20
47.63088409934949
 30
0.0
  0
VERTEX
  5
16D
  8
LATERAL
 10
26.175520368197
 20
47.89025193906252
 30
0.0
  0
VERTEX
  5
16E
  8
LATERAL
 10
26.57289379457563
 20
48.17883793910255
 30
0.0
  0
VERTEX
  5
16F
  8
LATERAL
 10
26.94702030912288
 20
48.49283331334914
 30
0.0
  0
VERTEX
  5
170
  8
LATERAL
 10
27.29487863409929
 20
48.8271120187494
 30
0.0
  0
VERTEX
  5
171
  8
LATERAL
 10
27.61854278556973
 20
49.17975672997341
 30
0.0
  0
VERTEX
  5
172
  8
LATERAL
 10
27.91884772801166
 20
49.54865656561446
 30
0.0
  0
VERTEX
  5
173
  8
LATERAL
 10
28.19631057044273
 20
49.93150914277044
 30
0.0
  0
VERTEX
  5
174
  8
LATERAL
 10
28.45145123196983
 20
50.32614381902408
 30
0.0
  0
VERTEX
  5
175
  8
LATERAL
 10
28.68476824243919
 20
50.73050089835874
 30
0.0
  0
VERTEX
  5
176
  8
LATERAL
 10
28.89672358915152
 20
51.14261233851926
 30
0.0
  0
VERTEX
  5
177
  8
LATERAL
 10
29.08768705721184
 20
51.56048283854784
 30
0.0
  0
VERTEX
  5
178
  8
LATERAL
 10
29.26025713409683
 20
51.98750330839289
 30
0.0
  0
VERTEX
  5
179
  8
LATERAL
 10
29.41385455713987
 20
52.42063710916523
 30
0.0
  0
VERTEX
  5
17A
  8
LATERAL
 10
29.54882792239789
 20
52.85858298933476
 30
0.0
  0
VERTEX
  5
17B
  8
LATERAL
 10
29.66563563155535
 20
53.30050125813818
 30
0.0
  0
VERTEX
  5
17C
  8
LATERAL
 10
29.76430672639174
 20
53.74519701428585
 30
0.0
  0
VERTEX
  5
17D
  8
LATERAL
 10
29.84537448255458
 20
54.19212875313519
 30
0.0
  0
VERTEX
  5
17E
  8
LATERAL
 10
29.90936077142317
 20
54.64003277521556
 30
0.0
  0
VERTEX
  5
17F
  8
LATERAL
 10
29.95554055147966
 20
55.08874630478044
 30
0.0
  0
VERTEX
  5
180
  8
LATERAL
 10
29.98550954106167
 20
55.53810121764695
 30
0.0
  0
VERTEX
  5
181
  8
LATERAL
 10
29.9988219313401
 20
55.98955921031506
 30
0.0
  0
VERTEX
  5
182
  8
LATERAL
 10
29.99540159147807
 20
56.44169692297169
 30
0.0
  0
VERTEX
  5
183
  8
LATERAL
 10
29.97520162510511
 20
56.89376217334507
 30
0.0
  0
VERTEX
  5
184
  8
LATERAL
 10
29.93815973221183
 20
57.34500046035032
 30
0.0
  0
VERTEX
  5
185
  8
LATERAL
 10
29.88419838193602
 20
57.79465332973564
 30
0.0
  0
VERTEX
  5
186
  8
LATERAL
 10
29.81322501444095
 20
58.24195661769795
 30
0.0
  0
VERTEX
  5
187
  8
LATERAL
 10
29.72513983898205
 20
58.68610060567539
 30
0.0
  0
VERTEX
  5
188
  8
LATERAL
 10
29.61950673511353
 20
59.12778196420481
 30
0.0
  0
VERTEX
  5
189
  8
LATERAL
 10
29.49585334392611
 20
59.56622574308972
 30
0.0
  0
VERTEX
  5
18A
  8
LATERAL
 10
29.35402647303283
 20
60.00011046192344
 30
0.0
  0
VERTEX
  5
18B
  8
LATERAL
 10
29.19382779791442
 20
60.42822278988319
 30
0.0
  0
VERTEX
  5
18C
  8
LATERAL
 10
29.01370644971541
 20
60.85271958595172
 30
0.0
  0
VERTEX
  5
18D
  8
LATERAL
 10
28.81316595689543
 20
61.2708412419172
 30
0.0
  0
VERTEX
  5
18E
  8
LATERAL
 10
28.59203168778652
 20
61.68059075871156
 30
0.0
  0
VERTEX
  5
18F
  8
LATERAL
 10
28.35019625813004
 20
62.07992913643216
 30
0.0
  0
VERTEX
  5
190
  8
LATERAL
 10
28.08749061587935
 20
62.46800460417467
 30
0.0
  0
VERTEX
  5
191
  8
LATERAL
 10
27.80176377823875
 20
62.8442424271168
 30
0.0
  0
VERTEX
  5
192
  8
LATERAL
 10
27.49332296269733
 20
63.20570671673545
 30
0.0
  0
VERTEX
  5
193
  8
LATERAL
 10
27.16144332711167
 20
63.55060620674681
 30
0.0
  0
VERTEX
  5
194
  8
LATERAL
 10
26.80465172802553
 20
63.87653842866007
 30
0.0
  0
VERTEX
  5
195
  8
LATERAL
 10
26.42416865127018
 20
64.17955642170705
 30
0.0
  0
VERTEX
  5
196
  8
LATERAL
 10
26.0198202604098
 20
64.45687128131999
 30
0.0
  0
VERTEX
  5
197
  8
LATERAL
 10
25.58999814221431
 20
64.70644456915579
 30
0.0
  0
VERTEX
  5
198
  8
LATERAL
 10
25.14569461856547
 20
64.91746813511986
 30
0.0
  0
VERTEX
  5
199
  8
LATERAL
 10
24.90322813134901
 20
65.01550512633571
 30
0.0
  0
VERTEX
  5
19A
  8
LATERAL
 10
24.65341173353852
 20
65.1044077590143
 30
0.0
  0
VERTEX
  5
19B
  8
LATERAL
 10
24.17909003299826
 20
65.23810214600076
 30
0.0
  0
VERTEX
  5
19C
  8
LATERAL
 10
23.68331714366047
 20
65.33130787871524
 30
0.0
  0
VERTEX
  5
19D
  8
LATERAL
 10
23.1786373326745
 20
65.37910676361656
 30
0.0
  0
VERTEX
  5
19E
  8
LATERAL
 10
22.67361836901409
 20
65.38049469662417
 30
0.0
  0
VERTEX
  5
19F
  8
LATERAL
 10
22.17073312968148
 20
65.33546281282597
 30
0.0
  0
VERTEX
  5
1A0
  8
LATERAL
 10
21.68421393053779
 20
65.2463486909377
 30
0.0
  0
VERTEX
  5
1A1
  8
LATERAL
 10
21.4256299958405
 20
65.18059195153144
 30
0.0
  0
VERTEX
  5
1A2
  8
LATERAL
 10
21.17106401842432
 20
65.10431085725358
 30
0.0
  0
VERTEX
  5
1A3
  8
LATERAL
 10
20.70537811423026
 20
64.93019931167737
 30
0.0
  0
VERTEX
  5
1A4
  8
LATERAL
 10
20.2542947392551
 20
64.71594525775231
 30
0.0
  0
VERTEX
  5
1A5
  8
LATERAL
 10
19.82460156414845
 20
64.46898674109275
 30
0.0
  0
VERTEX
  5
1A6
  8
LATERAL
 10
19.41946307999513
 20
64.19242576254203
 30
0.0
  0
VERTEX
  5
1A7
  8
LATERAL
 10
19.03776422363819
 20
63.89062453856127
 30
0.0
  0
VERTEX
  5
1A8
  8
LATERAL
 10
18.68571894392346
 20
63.5707295126997
 30
0.0
  0
VERTEX
  5
1A9
  8
LATERAL
 10
18.51041408125559
 20
63.39542465003956
 30
0.0
  0
VERTEX
  5
1AA
  8
LATERAL
 10
18.34912225325581
 20
63.22380378870935
 30
0.0
  0
VERTEX
  5
1AB
  8
LATERAL
 10
18.20696752202446
 20
63.06577390983819
 30
0.0
  0
VERTEX
  5
1AC
  8
LATERAL
 10
18.07984465872153
 20
62.92789936157929
 30
0.0
  0
VERTEX
  5
1AD
  8
LATERAL
 10
17.95640037828571
 20
62.80206968441998
 30
0.0
  0
VERTEX
  5
1AE
  8
LATERAL
 10
17.8358941692544
 20
62.68719460665181
 30
0.0
  0
VERTEX
  5
1AF
  8
LATERAL
 10
17.56599658632433
 20
62.45481641865816
 30
0.0
  0
VERTEX
  5
1B0
  8
LATERAL
 10
17.2888230379217
 20
62.24693625735627
 30
0.0
  0
VERTEX
  5
1B1
  8
LATERAL
 10
17.00728660519212
 20
62.06590732098552
 30
0.0
  0
VERTEX
  5
1B2
  8
LATERAL
 10
16.71618758646321
 20
61.90880513130892
 30
0.0
  0
VERTEX
  5
1B3
  8
LATERAL
 10
16.41646057271839
 20
61.77672204050617
 30
0.0
  0
VERTEX
  5
1B4
  8
LATERAL
 10
16.10328131395465
 20
61.66896143534017
 30
0.0
  0
VERTEX
  5
1B5
  8
LATERAL
 10
15.79137618015659
 20
61.59096565944417
 30
0.0
  0
VERTEX
  5
1B6
  8
LATERAL
 10
15.47727895914272
 20
61.54142570981602
 30
0.0
  0
VERTEX
  5
1B7
  8
LATERAL
 10
15.16102031302557
 20
61.52035209243988
 30
0.0
  0
VERTEX
  5
1B8
  8
LATERAL
 10
14.84281128292093
 20
61.52804177966216
 30
0.0
  0
VERTEX
  5
1B9
  8
LATERAL
 10
14.52698043197063
 20
61.56459722886014
 30
0.0
  0
VERTEX
  5
1BA
  8
LATERAL
 10
14.21345633385567
 20
61.63000972520618
 30
0.0
  0
VERTEX
  5
1BB
  8
LATERAL
 10
13.89774862503577
 20
61.72500142520511
 30
0.0
  0
VERTEX
  5
1BC
  8
LATERAL
 10
13.58937292389612
 20
61.84767643040298
 30
0.0
  0
VERTEX
  5
1BD
  8
LATERAL
 10
13.29142862095557
 20
61.99546696831496
 30
0.0
  0
VERTEX
  5
1BE
  8
LATERAL
 10
13.00356319636819
 20
62.16746943384867
 30
0.0
  0
VERTEX
  5
1BF
  8
LATERAL
 10
12.72598550728674
 20
62.36259011423043
 30
0.0
  0
VERTEX
  5
1C0
  8
LATERAL
 10
12.45910763885263
 20
62.57961703737801
 30
0.0
  0
VERTEX
  5
1C1
  8
LATERAL
 10
12.20452534840922
 20
62.81614714596309
 30
0.0
  0
VERTEX
  5
1C2
  8
LATERAL
 10
11.96272388929799
 20
63.07062106597707
 30
0.0
  0
VERTEX
  5
1C3
  8
LATERAL
 10
11.73422491267377
 20
63.34129512471782
 30
0.0
  0
VERTEX
  5
1C4
  8
LATERAL
 10
11.52010563403007
 20
63.62556861299594
 30
0.0
  0
VERTEX
  5
1C5
  8
LATERAL
 10
11.31995022017566
 20
63.92373540255822
 30
0.0
  0
VERTEX
  5
1C6
  8
LATERAL
 10
11.13390246676397
 20
64.23402810469712
 30
0.0
  0
VERTEX
  5
1C7
  8
LATERAL
 10
10.96207393018199
 20
64.55502432670826
 30
0.0
  0
VERTEX
  5
1C8
  8
LATERAL
 10
10.80429345907748
 20
64.88570172564872
 30
0.0
  0
VERTEX
  5
1C9
  8
LATERAL
 10
10.66140473041662
 20
65.22229916289035
 30
0.0
  0
VERTEX
  5
1CA
  8
LATERAL
 10
10.53292895611219
 20
65.56577964392022
 30
0.0
  0
VERTEX
  5
1CB
  8
LATERAL
 10
10.4185985196392
 20
65.91564603547407
 30
0.0
  0
VERTEX
  5
1CC
  8
LATERAL
 10
10.318281867157
 20
66.27113689234668
 30
0.0
  0
VERTEX
  5
1CD
  8
LATERAL
 10
10.23182848455872
 20
66.63035100259285
 30
0.0
  0
VERTEX
  5
1CE
  8
LATERAL
 10
10.1590948729264
 20
66.99351950814096
 30
0.0
  0
VERTEX
  5
1CF
  8
LATERAL
 10
10.10003973941343
 20
67.36004510485158
 30
0.0
  0
VERTEX
  5
1D0
  8
LATERAL
 10
10.0546529259658
 20
67.72914284108948
 30
0.0
  0
VERTEX
  5
1D1
  8
LATERAL
 10
10.02291207148039
 20
68.10001949911751
 30
0.0
  0
VERTEX
  5
1D2
  8
LATERAL
 10
10.00522431534239
 20
68.46280638110147
 30
0.0
  0
VERTEX
  5
1D3
  8
LATERAL
 10
10.00964241017221
 20
69.21484737349566
 30
0.0
  0
VERTEX
  5
1D4
  8
LATERAL
 10
10.06924192573945
 20
69.96373883408674
 30
0.0
  0
VERTEX
  5
1D5
  8
LATERAL
 10
10.11787631014465
 20
70.32191711554256
 30
0.0
  0
VERTEX
  5
1D6
  8
LATERAL
 10
10.18161605249622
 20
70.68729351664632
 30
0.0
  0
VERTEX
  5
1D7
  8
LATERAL
 10
10.25888592345734
 20
71.05119581395863
 30
0.0
  0
VERTEX
  5
1D8
  8
LATERAL
 10
10.35011406866113
 20
71.41018771999214
 30
0.0
  0
VERTEX
  5
1D9
  8
LATERAL
 10
10.45551350621724
 20
71.76470858456985
 30
0.0
  0
VERTEX
  5
1DA
  8
LATERAL
 10
10.57472541596997
 20
72.11307293605253
 30
0.0
  0
VERTEX
  5
1DB
  8
LATERAL
 10
10.70805463114391
 20
72.4539258025203
 30
0.0
  0
VERTEX
  5
1DC
  8
LATERAL
 10
10.85580698679871
 20
72.7880807038281
 30
0.0
  0
VERTEX
  5
1DD
  8
LATERAL
 10
11.01753452133073
 20
73.11396482016477
 30
0.0
  0
VERTEX
  5
1DE
  8
LATERAL
 10
11.19323161481964
 20
73.42992364475874
 30
0.0
  0
VERTEX
  5
1DF
  8
LATERAL
 10
11.38404633312962
 20
73.7368363581599
 30
0.0
  0
VERTEX
  5
1E0
  8
LATERAL
 10
11.58881287690588
 20
74.03137318489694
 30
0.0
  0
VERTEX
  5
1E1
  8
LATERAL
 10
11.80722271355444
 20
74.31165692550444
 30
0.0
  0
VERTEX
  5
1E2
  8
LATERAL
 10
12.03905453599543
 20
74.57608126435835
 30
0.0
  0
VERTEX
  5
1E3
  8
LATERAL
 10
12.28580751029506
 20
74.82485680402117
 30
0.0
  0
VERTEX
  5
1E4
  8
LATERAL
 10
12.54529617646187
 20
75.05563703285043
 30
0.0
  0
VERTEX
  5
1E5
  8
LATERAL
 10
12.81784223064494
 20
75.26650779459982
 30
0.0
  0
VERTEX
  5
1E6
  8
LATERAL
 10
13.10058277506062
 20
75.45519501623247
 30
0.0
  0
VERTEX
  5
1E7
  8
LATERAL
 10
13.39084611285955
 20
75.61846702507513
 30
0.0
  0
VERTEX
  5
1E8
  8
LATERAL
 10
13.68957794113874
 20
75.75702525539347
 30
0.0
  0
VERTEX
  5
1E9
  8
LATERAL
 10
13.99516203010978
 20
75.86937363568055
 30
0.0
  0
VERTEX
  5
1EA
  8
LATERAL
 10
14.30672128572576
 20
75.95444987977564
 30
0.0
  0
VERTEX
  5
1EB
  8
LATERAL
 10
14.62618759883014
 20
76.0114555342635
 30
0.0
  0
VERTEX
  5
1EC
  8
LATERAL
 10
14.94772801299985
 20
76.03933198272662
 30
0.0
  0
VERTEX
  5
1ED
  8
LATERAL
 10
15.27236335102236
 20
76.03713850071301
 30
0.0
  0
VERTEX
  5
1EE
  8
LATERAL
 10
15.59193513820071
 20
76.0052911404787
 30
0.0
  0
VERTEX
  5
1EF
  8
LATERAL
 10
15.90649875788802
 20
75.94496138916301
 30
0.0
  0
VERTEX
  5
1F0
  8
LATERAL
 10
16.21595978736593
 20
75.85696509406701
 30
0.0
  0
VERTEX
  5
1F1
  8
LATERAL
 10
16.51984231925735
 20
75.74206725103089
 30
0.0
  0
VERTEX
  5
1F2
  8
LATERAL
 10
16.81667285893207
 20
75.60135841418425
 30
0.0
  0
VERTEX
  5
1F3
  8
LATERAL
 10
17.10648438564135
 20
75.4346881488236
 30
0.0
  0
VERTEX
  5
1F4
  8
LATERAL
 10
17.38871363930707
 20
75.24265587313361
 30
0.0
  0
VERTEX
  5
1F5
  8
LATERAL
 10
17.66587676249844
 20
75.02454054575264
 30
0.0
  0
VERTEX
  5
1F6
  8
LATERAL
 10
17.78980977122887
 20
74.91630945668035
 30
0.0
  0
VERTEX
  5
1F7
  8
LATERAL
 10
17.91080095756183
 20
74.80323358160273
 30
0.0
  0
VERTEX
  5
1F8
  8
LATERAL
 10
18.17169056802493
 20
74.53467074730251
 30
0.0
  0
VERTEX
  5
1F9
  8
LATERAL
 10
18.22695142384543
 20
74.47438617731655
 30
0.0
  0
VERTEX
  5
1FA
  8
LATERAL
 10
18.25339906415536
 20
74.44470005043796
 30
0.0
  0
VERTEX
  5
1FB
  8
LATERAL
 10
18.29268055973819
 20
74.39969000346287
 30
0.0
  0
VERTEX
  5
1FC
  8
LATERAL
 10
18.45606491189494
 20
74.2222777018776
 30
0.0
  0
VERTEX
  5
1FD
  8
LATERAL
 10
18.78288387717669
 20
73.89685625202787
 30
0.0
  0
VERTEX
  5
1FE
  8
LATERAL
 10
19.14022098239332
 20
73.58410922837538
 30
0.0
  0
VERTEX
  5
1FF
  8
LATERAL
 10
19.52317526132595
 20
73.29379183764559
 30
0.0
  0
VERTEX
  5
200
  8
LATERAL
 10
19.9302053369521
 20
73.02851765393257
 30
0.0
  0
VERTEX
  5
201
  8
LATERAL
 10
20.35675808902545
 20
72.79333326083838
 30
0.0
  0
VERTEX
  5
202
  8
LATERAL
 10
20.80483008888348
 20
72.59058622765178
 30
0.0
  0
VERTEX
  5
203
  8
LATERAL
 10
21.27140290279942
 20
72.42487069253548
 30
0.0
  0
VERTEX
  5
204
  8
LATERAL
 10
21.75116844076854
 20
72.29955340921424
 30
0.0
  0
VERTEX
  5
205
  8
LATERAL
 10
22.24258212375537
 20
72.2166881521072
 30
0.0
  0
VERTEX
  5
206
  8
LATERAL
 10
22.74320655180998
 20
72.1783184384557
 30
0.0
  0
VERTEX
  5
207
  8
LATERAL
 10
23.25496237275104
 20
72.18608539020704
 30
0.0
  0
VERTEX
  5
208
  8
LATERAL
 10
23.76016181176578
 20
72.24202740645192
 30
0.0
  0
VERTEX
  5
209
  8
LATERAL
 10
24.25009877519312
 20
72.34052928119323
 30
0.0
  0
VERTEX
  5
20A
  8
LATERAL
 10
24.7279423392589
 20
72.48177594669527
 30
0.0
  0
VERTEX
  5
20B
  8
LATERAL
 10
25.18973657335198
 20
72.66249821082604
 30
0.0
  0
VERTEX
  5
20C
  8
LATERAL
 10
25.63059457278064
 20
72.87788935954728
 30
0.0
  0
VERTEX
  5
20D
  8
LATERAL
 10
26.04982737098089
 20
73.12463430151024
 30
0.0
  0
VERTEX
  5
20E
  8
LATERAL
 10
26.44698823746251
 20
73.39962869272358
 30
0.0
  0
VERTEX
  5
20F
  8
LATERAL
 10
26.82180708840576
 20
73.70024313120825
 30
0.0
  0
VERTEX
  5
210
  8
LATERAL
 10
27.17226721208647
 20
74.02163986814412
 30
0.0
  0
VERTEX
  5
211
  8
LATERAL
 10
27.49913489556991
 20
74.36163546741545
 30
0.0
  0
VERTEX
  5
212
  8
LATERAL
 10
27.80290169230636
 20
74.7178708743138
 30
0.0
  0
VERTEX
  5
213
  8
LATERAL
 10
28.08412939728635
 20
75.08812625697851
 30
0.0
  0
VERTEX
  5
214
  8
LATERAL
 10
28.34341124238529
 20
75.47031049830161
 30
0.0
  0
VERTEX
  5
215
  8
LATERAL
 10
28.58134285222798
 20
75.86244531483612
 30
0.0
  0
VERTEX
  5
216
  8
LATERAL
 10
28.79857486680055
 20
76.26278188856145
 30
0.0
  0
VERTEX
  5
217
  8
LATERAL
 10
28.99579085291941
 20
76.67014605662666
 30
0.0
  0
VERTEX
  5
218
  8
LATERAL
 10
29.17421256784985
 20
77.08441256713854
 30
0.0
  0
VERTEX
  5
219
  8
LATERAL
 10
29.3345503304912
 20
77.50616423823271
 30
0.0
  0
VERTEX
  5
21A
  8
LATERAL
 10
29.47609113983742
 20
77.93233886159783
 30
0.0
  0
VERTEX
  5
21B
  8
LATERAL
 10
29.60040208242015
 20
78.36219969517356
 30
0.0
  0
VERTEX
  5
21C
  8
LATERAL
 10
29.70762995101893
 20
78.79689845397229
 30
0.0
  0
VERTEX
  5
21D
  8
LATERAL
 10
29.7977509026681
 20
79.23481317861228
 30
0.0
  0
VERTEX
  5
21E
  8
LATERAL
 10
29.87082990635463
 20
79.67447851003203
 30
0.0
  0
VERTEX
  5
21F
  8
LATERAL
 10
29.92735166503269
 20
80.11345500199809
 30
0.0
  0
VERTEX
  5
220
  8
LATERAL
 10
29.9684928274811
 20
80.56398209008626
 30
0.0
  0
VERTEX
  5
221
  8
LATERAL
 10
30.00026329510661
 20
81.44117028751657
 30
0.0
  0
VERTEX
  5
222
  8
LATERAL
 10
29.96795077227443
 20
82.32735713625675
 30
0.0
  0
VERTEX
  5
223
  8
LATERAL
 10
29.87127032306705
 20
83.2083678042834
 30
0.0
  0
VERTEX
  5
224
  8
LATERAL
 10
29.7096436217721
 20
84.07291817818464
 30
0.0
  0
VERTEX
  5
225
  8
LATERAL
 10
29.60138198584411
 20
84.51395123602401
 30
0.0
  0
VERTEX
  5
226
  8
LATERAL
 10
29.47745486347378
 20
84.94362344199112
 30
0.0
  0
VERTEX
  5
227
  8
LATERAL
 10
29.33532442932085
 20
85.3699419503921
 30
0.0
  0
VERTEX
  5
228
  8
LATERAL
 10
29.17520162127732
 20
85.79145402922882
 30
0.0
  0
VERTEX
  5
229
  8
LATERAL
 10
28.99646888481277
 20
86.20737458719691
 30
0.0
  0
VERTEX
  5
22A
  8
LATERAL
 10
28.79864652317076
 20
86.61636432392174
 30
0.0
  0
VERTEX
  5
22B
  8
LATERAL
 10
28.58041161036419
 20
87.01848874074608
 30
0.0
  0
VERTEX
  5
22C
  8
LATERAL
 10
28.34146577447211
 20
87.4115269254637
 30
0.0
  0
VERTEX
  5
22D
  8
LATERAL
 10
28.08124669277288
 20
87.79382010219547
 30
0.0
  0
VERTEX
  5
22E
  8
LATERAL
 10
27.79981118447779
 20
88.16283606443108
 30
0.0
  0
VERTEX
  5
22F
  8
LATERAL
 10
27.4970806124785
 20
88.51790051247485
 30
0.0
  0
VERTEX
  5
230
  8
LATERAL
 10
27.17071992378135
 20
88.8576210694921
 30
0.0
  0
VERTEX
  5
231
  8
LATERAL
 10
26.82106279143011
 20
89.17863346887339
 30
0.0
  0
VERTEX
  5
232
  8
LATERAL
 10
26.4482370374609
 20
89.4778116151067
 30
0.0
  0
VERTEX
  5
233
  8
LATERAL
 10
26.051000887138
 20
89.75351251192001
 30
0.0
  0
VERTEX
  5
234
  8
LATERAL
 10
25.63131453232211
 20
90.00078053307516
 30
0.0
  0
VERTEX
  5
235
  8
LATERAL
 10
25.18985259419344
 20
90.21622682133534
 30
0.0
  0
VERTEX
  5
236
  8
LATERAL
 10
24.72846879346059
 20
90.39609952129558
 30
0.0
  0
VERTEX
  5
237
  8
LATERAL
 10
24.24802496345035
 20
90.53861127903787
 30
0.0
  0
VERTEX
  5
238
  8
LATERAL
 10
23.75981400052763
 20
90.63659728216834
 30
0.0
  0
VERTEX
  5
239
  8
LATERAL
 10
23.26901932482883
 20
90.69075986516638
 30
0.0
  0
VERTEX
  5
23A
  8
LATERAL
 10
22.77418602699254
 20
90.70112060597135
 30
0.0
  0
VERTEX
  5
23B
  8
LATERAL
 10
22.27944029950834
 20
90.66588936623259
 30
0.0
  0
VERTEX
  5
23C
  8
LATERAL
 10
21.79045325319112
 20
90.58744052011178
 30
0.0
  0
VERTEX
  5
23D
  8
LATERAL
 10
21.30566772788154
 20
90.46372924698372
 30
0.0
  0
VERTEX
  5
23E
  8
LATERAL
 10
20.83671298472746
 20
90.30041167474124
 30
0.0
  0
VERTEX
  5
23F
  8
LATERAL
 10
20.39121403086585
 20
90.1029878563547
 30
0.0
  0
VERTEX
  5
240
  8
LATERAL
 10
19.96497444308204
 20
89.87182311322886
 30
0.0
  0
VERTEX
  5
241
  8
LATERAL
 10
19.56016573158468
 20
89.60998585629943
 30
0.0
  0
VERTEX
  5
242
  8
LATERAL
 10
19.17255326729287
 20
89.31968886177003
 30
0.0
  0
VERTEX
  5
243
  8
LATERAL
 10
18.80934253125531
 20
89.00485156461491
 30
0.0
  0
VERTEX
  5
244
  8
LATERAL
 10
18.47224993822817
 20
88.67337718146723
 30
0.0
  0
VERTEX
  5
245
  8
LATERAL
 10
18.31117394803107
 20
88.4977315037197
 30
0.0
  0
VERTEX
  5
246
  8
LATERAL
 10
18.17624636513892
 20
88.34773586589299
 30
0.0
  0
VERTEX
  5
247
  8
LATERAL
 10
18.05184309580852
 20
88.21532644556603
 30
0.0
  0
VERTEX
  5
248
  8
LATERAL
 10
17.9331347949111
 20
88.09661814466853
 30
0.0
  0
VERTEX
  5
249
  8
LATERAL
 10
17.66872430932824
 20
87.85647951160249
 30
0.0
  0
VERTEX
  5
24A
  8
LATERAL
 10
17.39764101045137
 20
87.64186310524018
 30
0.0
  0
VERTEX
  5
24B
  8
LATERAL
 10
17.11503804353208
 20
87.44920113074758
 30
0.0
  0
VERTEX
  5
24C
  8
LATERAL
 10
16.82157650979832
 20
87.27996101525768
 30
0.0
  0
VERTEX
  5
24D
  8
LATERAL
 10
16.51845435195344
 20
87.13549881591003
 30
0.0
  0
VERTEX
  5
24E
  8
LATERAL
 10
16.20878734925589
 20
87.01872650965103
 30
0.0
  0
VERTEX
  5
24F
  8
LATERAL
 10
15.88796544001093
 20
86.92905233015728
 30
0.0
  0
VERTEX
  5
250
  8
LATERAL
 10
15.56564596189298
 20
86.86934306148358
 30
0.0
  0
VERTEX
  5
251
  8
LATERAL
 10
15.24687856034529
 20
86.84000343213435
 30
0.0
  0
VERTEX
  5
252
  8
LATERAL
 10
14.92865617580503
 20
86.83992639728952
 30
0.0
  0
VERTEX
  5
253
  8
LATERAL
 10
14.61127218261106
 20
86.86895322628311
 30
0.0
  0
VERTEX
  5
254
  8
LATERAL
 10
14.2938049065209
 20
86.92738040193879
 30
0.0
  0
VERTEX
  5
255
  8
LATERAL
 10
13.97983180160929
 20
87.01407032117095
 30
0.0
  0
VERTEX
  5
256
  8
LATERAL
 10
13.66730478653722
 20
87.13077699825358
 30
0.0
  0
VERTEX
  5
257
  8
LATERAL
 10
13.36269885957267
 20
87.27451802700307
 30
0.0
  0
VERTEX
  5
258
  8
LATERAL
 10
13.06744969103852
 20
87.44342668092018
 30
0.0
  0
VERTEX
  5
259
  8
LATERAL
 10
12.78445522951472
 20
87.63545087134135
 30
0.0
  0
VERTEX
  5
25A
  8
LATERAL
 10
12.51306171199826
 20
87.84945539453506
 30
0.0
  0
VERTEX
  5
25B
  8
LATERAL
 10
12.25397186739281
 20
88.08379976515533
 30
0.0
  0
VERTEX
  5
25C
  8
LATERAL
 10
12.00822142719323
 20
88.33631423642932
 30
0.0
  0
VERTEX
  5
25D
  8
LATERAL
 10
11.77608663351305
 20
88.6063810365133
 30
0.0
  0
VERTEX
  5
25E
  8
LATERAL
 10
11.55696019490438
 20
88.89188854509875
 30
0.0
  0
VERTEX
  5
25F
  8
LATERAL
 10
11.35239676207959
 20
89.19034490043917
 30
0.0
  0
VERTEX
  5
260
  8
LATERAL
 10
11.16244231914663
 20
89.5007431547837
 30
0.0
  0
VERTEX
  5
261
  8
LATERAL
 10
10.98668906378907
 20
89.82275302410434
 30
0.0
  0
VERTEX
  5
262
  8
LATERAL
 10
10.82556400708006
 20
90.1544603501108
 30
0.0
  0
VERTEX
  5
263
  8
LATERAL
 10
10.67892064054649
 20
90.49481706430042
 30
0.0
  0
VERTEX
  5
264
  8
LATERAL
 10
10.54696884712735
 20
90.84177509984548
 30
0.0
  0
VERTEX
  5
265
  8
LATERAL
 10
10.43020571875616
 20
91.19428250910691
 30
0.0
  0
VERTEX
  5
266
  8
LATERAL
 10
10.32716421431871
 20
91.55341480046198
 30
0.0
  0
VERTEX
  5
267
  8
LATERAL
 10
10.23879415745375
 20
91.91503752638585
 30
0.0
  0
VERTEX
  5
268
  8
LATERAL
 10
10.16430594945768
 20
92.27957467291334
 30
0.0
  0
VERTEX
  5
269
  8
LATERAL
 10
10.10397231260924
 20
92.64884452283346
 30
0.0
  0
VERTEX
  5
26A
  8
LATERAL
 10
10.05721564189514
 20
93.02136307399661
 30
0.0
  0
VERTEX
  5
26B
  8
LATERAL
 10
10.02430393135478
 20
93.39518834577484
 30
0.0
  0
VERTEX
  5
26C
  8
LATERAL
 10
10.00530591183053
 20
93.76946436841338
 30
0.0
  0
VERTEX
  5
26D
  8
LATERAL
 10
10.00032384380518
 20
94.14391073256962
 30
0.0
  0
VERTEX
  5
26E
  8
LATERAL
 10
10.00903783419005
 20
94.51937939131687
 30
0.0
  0
VERTEX
  5
26F
  8
LATERAL
 10
10.03152586849137
 20
94.89451960706985
 30
0.0
  0
VERTEX
  5
270
  8
LATERAL
 10
10.06784451045246
 20
95.2684585614088
 30
0.0
  0
VERTEX
  5
271
  8
LATERAL
 10
10.11803549434296
 20
95.64032943309475
 30
0.0
  0
VERTEX
  5
272
  8
LATERAL
 10
10.18212607433418
 20
96.00927320810435
 30
0.0
  0
VERTEX
  5
273
  8
LATERAL
 10
10.26012949990616
 20
96.37444071425344
 30
0.0
  0
VERTEX
  5
274
  8
LATERAL
 10
10.35194365425241
 20
96.7345946122423
 30
0.0
  0
VERTEX
  5
275
  8
LATERAL
 10
10.45878053286117
 20
97.09205821565567
 30
0.0
  0
VERTEX
  5
276
  8
LATERAL
 10
10.57993150564243
 20
97.44393474956426
 30
0.0
  0
VERTEX
  5
277
  8
LATERAL
 10
10.71537614181057
 20
97.78849778478633
 30
0.0
  0
VERTEX
  5
278
  8
LATERAL
 10
10.86591784854238
 20
98.12614863910976
 30
0.0
  0
VERTEX
  5
279
  8
LATERAL
 10
11.0298016822087
 20
98.45438588762775
 30
0.0
  0
VERTEX
  5
27A
  8
LATERAL
 10
11.20862658710064
 20
98.77234870807541
 30
0.0
  0
VERTEX
  5
27B
  8
LATERAL
 10
11.40188558591728
 20
99.0804786869503
 30
0.0
  0
VERTEX
  5
27C
  8
LATERAL
 10
11.60943675570661
 20
99.3755773187468
 30
0.0
  0
VERTEX
  5
27D
  8
LATERAL
 10
11.83174872263078
 20
99.65745056918814
 30
0.0
  0
VERTEX
  5
27E
  8
LATERAL
 10
12.06771368315492
 20
99.92331555468985
 30
0.0
  0
VERTEX
  5
27F
  8
LATERAL
 10
12.31700524120777
 20
100.171505746018
 30
0.0
  0
VERTEX
  5
280
  8
LATERAL
 10
12.57985099904795
 20
100.4009628136931
 30
0.0
  0
VERTEX
  5
281
  8
LATERAL
 10
12.85637969709649
 20
100.6109428613763
 30
0.0
  0
VERTEX
  5
282
  8
LATERAL
 10
13.14405496403026
 20
100.7980658063498
 30
0.0
  0
VERTEX
  5
283
  8
LATERAL
 10
13.43902177098118
 20
100.9593858345878
 30
0.0
  0
VERTEX
  5
284
  8
LATERAL
 10
13.74336638478132
 20
101.09531085401
 30
0.0
  0
VERTEX
  5
285
  8
LATERAL
 10
14.05411477681071
 20
101.204143302384
 30
0.0
  0
VERTEX
  5
286
  8
LATERAL
 10
14.36848478346053
 20
101.284419232683
 30
0.0
  0
VERTEX
  5
287
  8
LATERAL
 10
14.68649153131514
 20
101.335933245492
 30
0.0
  0
VERTEX
  5
288
  8
LATERAL
 10
15.00763239872867
 20
101.3581561353285
 30
0.0
  0
VERTEX
  5
289
  8
LATERAL
 10
15.33474365988411
 20
101.3500657708731
 30
0.0
  0
VERTEX
  5
28A
  8
LATERAL
 10
15.66118583671687
 20
101.3113691871608
 30
0.0
  0
VERTEX
  5
28B
  8
LATERAL
 10
15.97855286478432
 20
101.2440279788114
 30
0.0
  0
VERTEX
  5
28C
  8
LATERAL
 10
16.29158479145133
 20
101.1480909739103
 30
0.0
  0
VERTEX
  5
28D
  8
LATERAL
 10
16.59628917121199
 20
101.0253615997342
 30
0.0
  0
VERTEX
  5
28E
  8
LATERAL
 10
16.89305365092366
 20
100.8768992639052
 30
0.0
  0
VERTEX
  5
28F
  8
LATERAL
 10
17.1805554179042
 20
100.7041318817447
 30
0.0
  0
VERTEX
  5
290
  8
LATERAL
 10
17.45801144242876
 20
100.5082430853762
 30
0.0
  0
VERTEX
  5
291
  8
LATERAL
 10
17.72550063837787
 20
100.2900708297919
 30
0.0
  0
VERTEX
  5
292
  8
LATERAL
 10
17.98039047996883
 20
100.0519754792212
 30
0.0
  0
VERTEX
  5
293
  8
LATERAL
 10
18.23319996885641
 20
99.78411033838991
 30
0.0
  0
VERTEX
  5
294
  8
LATERAL
 10
18.25821191490354
 20
99.75603570507172
 30
0.0
  0
VERTEX
  5
295
  8
LATERAL
 10
18.29596633623726
 20
99.71365829340925
 30
0.0
  0
VERTEX
  5
296
  8
LATERAL
 10
18.37626694340008
 20
99.62524651378612
 30
0.0
  0
VERTEX
  5
297
  8
LATERAL
 10
18.53611907833431
 20
99.45668955961105
 30
0.0
  0
VERTEX
  5
298
  8
LATERAL
 10
18.70606217838679
 20
99.28756349368655
 30
0.0
  0
VERTEX
  5
299
  8
LATERAL
 10
18.88602818388847
 20
99.12111606135818
 30
0.0
  0
VERTEX
  5
29A
  8
LATERAL
 10
19.2409049779709
 20
98.82095949855989
 30
0.0
  0
VERTEX
  5
29B
  8
LATERAL
 10
19.62105553897993
 20
98.54278065456197
 30
0.0
  0
VERTEX
  5
29C
  8
LATERAL
 10
19.83052577559658
 20
98.40714009151202
 30
0.0
  0
VERTEX
  5
29D
  8
LATERAL
 10
20.04760831054602
 20
98.27620141962188
 30
0.0
  0
VERTEX
  5
29E
  8
LATERAL
 10
20.47270341635715
 20
98.05336046009097
 30
0.0
  0
VERTEX
  5
29F
  8
LATERAL
 10
20.92416300442198
 20
97.86109097922713
 30
0.0
  0
VERTEX
  5
2A0
  8
LATERAL
 10
21.39299658912785
 20
97.70610874058644
 30
0.0
  0
VERTEX
  5
2A1
  8
LATERAL
 10
21.87734626339272
 20
97.59122433108615
 30
0.0
  0
VERTEX
  5
2A2
  8
LATERAL
 10
22.37083755960532
 20
97.51957288063012
 30
0.0
  0
VERTEX
  5
2A3
  8
LATERAL
 10
22.87061593301041
 20
97.49301304484533
 30
0.0
  0
VERTEX
  5
2A4
  8
LATERAL
 10
23.37623015396434
 20
97.51282416423558
 30
0.0
  0
VERTEX
  5
2A5
  8
LATERAL
 10
23.88220726597785
 20
97.57897057787176
 30
0.0
  0
VERTEX
  5
2A6
  8
LATERAL
 10
24.37222443000951
 20
97.68934749059149
 30
0.0
  0
VERTEX
  5
2A7
  8
LATERAL
 10
24.84574227219048
 20
97.84043079703555
 30
0.0
  0
VERTEX
  5
2A8
  8
LATERAL
 10
25.30193915206792
 20
98.02970157524454
 30
0.0
  0
VERTEX
  5
2A9
  8
LATERAL
 10
25.73898977773547
 20
98.2542121729499
 30
0.0
  0
VERTEX
  5
2AA
  8
LATERAL
 10
26.15331499716569
 20
98.50914146939465
 30
0.0
  0
VERTEX
  5
2AB
  8
LATERAL
 10
26.54526466670859
 20
98.79129146891091
 30
0.0
  0
VERTEX
  5
2AC
  8
LATERAL
 10
26.9157426200328
 20
99.09933854761744
 30
0.0
  0
VERTEX
  5
2AD
  8
LATERAL
 10
27.26102273094205
 20
99.42751752095273
 30
0.0
  0
VERTEX
  5
2AE
  8
LATERAL
 10
27.58263487600595
 20
99.77291351281701
 30
0.0
  0
VERTEX
  5
2AF
  8
LATERAL
 10
27.88183379743089
 20
100.1346653573498
 30
0.0
  0
VERTEX
  5
2B0
  8
LATERAL
 10
28.15882358537021
 20
100.5107835967258
 30
0.0
  0
VERTEX
  5
2B1
  8
LATERAL
 10
28.4131668929632
 20
100.8983260033863
 30
0.0
  0
VERTEX
  5
2B2
  8
LATERAL
 10
28.64626183366011
 20
101.2946761818655
 30
0.0
  0
VERTEX
  5
2B3
  8
LATERAL
 10
28.85904509459476
 20
101.700192918421
 30
0.0
  0
VERTEX
  5
2B4
  8
LATERAL
 10
29.05162209995763
 20
102.1119632632128
 30
0.0
  0
VERTEX
  5
2B5
  8
LATERAL
 10
29.22488626376673
 20
102.5295142886
 30
0.0
  0
VERTEX
  5
2B6
  8
LATERAL
 10
29.37997729876395
 20
102.953698845374
 30
0.0
  0
VERTEX
  5
2B7
  8
LATERAL
 10
29.51705184409241
 20
103.3830115687481
 30
0.0
  0
VERTEX
  5
2B8
  8
LATERAL
 10
29.63641163033196
 20
103.8166314205912
 30
0.0
  0
VERTEX
  5
2B9
  8
LATERAL
 10
29.73826671241784
 20
104.2534808423045
 30
0.0
  0
VERTEX
  5
2BA
  8
LATERAL
 10
29.82302108876513
 20
104.6926034598375
 30
0.0
  0
VERTEX
  5
2BB
  8
LATERAL
 10
29.89105156366634
 20
105.1342841589769
 30
0.0
  0
VERTEX
  5
2BC
  8
LATERAL
 10
29.94255256400845
 20
105.577678212346
 30
0.0
  0
VERTEX
  5
2BD
  8
LATERAL
 10
29.97848686916177
 20
106.0317014127143
 30
0.0
  0
VERTEX
  5
2BE
  8
LATERAL
 10
29.999032974643
 20
106.9098571803459
 30
0.0
  0
VERTEX
  5
2BF
  8
LATERAL
 10
29.95569486797797
 20
107.7895447138928
 30
0.0
  0
VERTEX
  5
2C0
  8
LATERAL
 10
29.90858166488056
 20
108.2419491240264
 30
0.0
  0
VERTEX
  5
2C1
  8
LATERAL
 10
29.84587221845561
 20
108.6843322641309
 30
0.0
  0
VERTEX
  5
2C2
  8
LATERAL
 10
29.76625093181531
 20
109.1250223412392
 30
0.0
  0
VERTEX
  5
2C3
  8
LATERAL
 10
29.66941270811083
 20
109.5628953268308
 30
0.0
  0
VERTEX
  5
2C4
  8
LATERAL
 10
29.55568868008174
 20
109.9957616357644
 30
0.0
  0
VERTEX
  5
2C5
  8
LATERAL
 10
29.42495635696207
 20
110.4246333278891
 30
0.0
  0
VERTEX
  5
2C6
  8
LATERAL
 10
29.27624884635873
 20
110.8497343791698
 30
0.0
  0
VERTEX
  5
2C7
  8
LATERAL
 10
29.1077981519544
 20
111.2708611151722
 30
0.0
  0
VERTEX
  5
2C8
  8
LATERAL
 10
28.92086875827283
 20
111.6859871751433
 30
0.0
  0
VERTEX
  5
2C9
  8
LATERAL
 10
28.71386433440478
 20
112.0947316386439
 30
0.0
  0
VERTEX
  5
2CA
  8
LATERAL
 10
28.48659944744361
 20
112.4950239651591
 30
0.0
  0
VERTEX
  5
2CB
  8
LATERAL
 10
28.23818209600825
 20
112.8860106277764
 30
0.0
  0
VERTEX
  5
2CC
  8
LATERAL
 10
27.96755603206259
 20
113.2655654280973
 30
0.0
  0
VERTEX
  5
2CD
  8
LATERAL
 10
27.67604655047046
 20
113.6303778779227
 30
0.0
  0
VERTEX
  5
2CE
  8
LATERAL
 10
27.36111200464541
 20
113.9816161178057
 30
0.0
  0
VERTEX
  5
2CF
  8
LATERAL
 10
27.02256998595124
 20
114.3152826438875
 30
0.0
  0
VERTEX
  5
2D0
  8
LATERAL
 10
26.66232104768335
 20
114.6277566333513
 30
0.0
  0
VERTEX
  5
2D1
  8
LATERAL
 10
26.27837951280992
 20
114.9176498321531
 30
0.0
  0
VERTEX
  5
2D2
  8
LATERAL
 10
25.87106928642618
 20
115.181597363709
 30
0.0
  0
VERTEX
  5
2D3
  8
LATERAL
 10
25.44064328047637
 20
115.4161987482951
 30
0.0
  0
VERTEX
  5
2D4
  8
LATERAL
 10
24.98663968224366
 20
115.6182366962553
 30
0.0
  0
VERTEX
  5
2D5
  8
LATERAL
 10
24.51497693825024
 20
115.7817662950522
 30
0.0
  0
VERTEX
  5
2D6
  8
LATERAL
 10
24.02684123858683
 20
115.9055641794638
 30
0.0
  0
VERTEX
  5
2D7
  8
LATERAL
 10
23.52719436678638
 20
115.9848629733138
 30
0.0
  0
VERTEX
  5
2D8
  8
LATERAL
 10
23.02943035229293
 20
116.0182664272557
 30
0.0
  0
VERTEX
  5
2D9
  8
LATERAL
 10
22.53270395275092
 20
116.0063024791626
 30
0.0
  0
VERTEX
  5
2DA
  8
LATERAL
 10
22.03997896696171
 20
115.949610631981
 30
0.0
  0
VERTEX
  5
2DB
  8
LATERAL
 10
21.55399675794695
 20
115.8491758278864
 30
0.0
  0
VERTEX
  5
2DC
  8
LATERAL
 10
21.08782491769716
 20
115.7096584491719
 30
0.0
  0
VERTEX
  5
2DD
  8
LATERAL
 10
20.84409424159503
 20
115.6192565256736
 30
0.0
  0
VERTEX
  5
2DE
  8
LATERAL
 10
20.60543184812207
 20
115.5192289048562
 30
0.0
  0
VERTEX
  5
2DF
  8
LATERAL
 10
20.17578832438778
 20
115.308166910099
 30
0.0
  0
VERTEX
  5
2E0
  8
LATERAL
 10
19.7573194960795
 20
115.060352119853
 30
0.0
  0
VERTEX
  5
2E1
  8
LATERAL
 10
19.37031166813233
 20
114.7898540169496
 30
0.0
  0
VERTEX
  5
2E2
  8
LATERAL
 10
19.17292058404689
 20
114.6362322601924
 30
0.0
  0
VERTEX
  5
2E3
  8
LATERAL
 10
18.98168360685679
 20
114.4754578103193
 30
0.0
  0
VERTEX
  5
2E4
  8
LATERAL
 10
18.64254993104839
 20
114.1630152108492
 30
0.0
  0
VERTEX
  5
2E5
  8
LATERAL
 10
18.46785331019657
 20
113.9857867549192
 30
0.0
  0
VERTEX
  5
2E6
  8
LATERAL
 10
18.31053624301614
 20
113.8150977370344
 30
0.0
  0
VERTEX
  5
2E7
  8
LATERAL
 10
18.1747655142949
 20
113.6634756034267
 30
0.0
  0
VERTEX
  5
2E8
  8
LATERAL
 10
18.05688656007305
 20
113.5380103798738
 30
0.0
  0
VERTEX
  5
2E9
  8
LATERAL
 10
17.7980816102837
 20
113.2877508765396
 30
0.0
  0
VERTEX
  5
2EA
  8
LATERAL
 10
17.53314555506961
 20
113.0625515366045
 30
0.0
  0
VERTEX
  5
2EB
  8
LATERAL
 10
17.25580932517812
 20
112.8586944342534
 30
0.0
  0
VERTEX
  5
2EC
  8
LATERAL
 10
16.96737409500167
 20
112.6770914192275
 30
0.0
  0
VERTEX
  5
2ED
  8
LATERAL
 10
16.67091418388725
 20
112.5210959772632
 30
0.0
  0
VERTEX
  5
2EE
  8
LATERAL
 10
16.36639467802195
 20
112.3913606373619
 30
0.0
  0
VERTEX
  5
2EF
  8
LATERAL
 10
16.05317689149422
 20
112.2885410266464
 30
0.0
  0
VERTEX
  5
2F0
  8
LATERAL
 10
15.73068974775435
 20
112.2130535024663
 30
0.0
  0
VERTEX
  5
2F1
  8
LATERAL
 10
15.40533422701594
 20
112.1679111121101
 30
0.0
  0
VERTEX
  5
2F2
  8
LATERAL
 10
15.08468698343916
 20
112.1533984700011
 30
0.0
  0
VERTEX
  5
2F3
  8
LATERAL
 10
14.76351859472857
 20
112.1684832363368
 30
0.0
  0
VERTEX
  5
2F4
  8
LATERAL
 10
14.44344638990299
 20
112.2131136529378
 30
0.0
  0
VERTEX
  5
2F5
  8
LATERAL
 10
14.12830306425224
 20
112.2863275454718
 30
0.0
  0
VERTEX
  5
2F6
  8
LATERAL
 10
13.81852636503402
 20
112.3875001133221
 30
0.0
  0
VERTEX
  5
2F7
  8
LATERAL
 10
13.51428926336223
 20
112.5163039233383
 30
0.0
  0
VERTEX
  5
2F8
  8
LATERAL
 10
13.21342865198028
 20
112.6734581704153
 30
0.0
  0
VERTEX
  5
2F9
  8
LATERAL
 10
12.92241318631966
 20
112.8552524814279
 30
0.0
  0
VERTEX
  5
2FA
  8
LATERAL
 10
12.64516498690489
 20
113.0583249470702
 30
0.0
  0
VERTEX
  5
2FB
  8
LATERAL
 10
12.38012298078183
 20
113.2828181066375
 30
0.0
  0
VERTEX
  5
2FC
  8
LATERAL
 10
12.12756667210442
 20
113.5268800345573
 30
0.0
  0
VERTEX
  5
2FD
  8
LATERAL
 10
11.88845226472301
 20
113.788659180797
 30
0.0
  0
VERTEX
  5
2FE
  8
LATERAL
 10
11.66289080293552
 20
114.0666779025051
 30
0.0
  0
VERTEX
  5
2FF
  8
LATERAL
 10
11.4513571576789
 20
114.358935151025
 30
0.0
  0
VERTEX
  5
300
  8
LATERAL
 10
11.25401186588897
 20
114.6639127966739
 30
0.0
  0
VERTEX
  5
301
  8
LATERAL
 10
11.07151802916928
 20
114.9799585883388
 30
0.0
  0
VERTEX
  5
302
  8
LATERAL
 10
10.90369380008519
 20
115.3062010838999
 30
0.0
  0
VERTEX
  5
303
  8
LATERAL
 10
10.75032120334185
 20
115.6419000693435
 30
0.0
  0
VERTEX
  5
304
  8
LATERAL
 10
10.61108210329132
 20
115.9856129962339
 30
0.0
  0
VERTEX
  5
305
  8
LATERAL
 10
10.48653004218158
 20
116.3359941496474
 30
0.0
  0
VERTEX
  5
306
  8
LATERAL
 10
10.37642889819983
 20
116.6924710354836
 30
0.0
  0
VERTEX
  5
307
  8
LATERAL
 10
10.28059895533193
 20
117.0544520750069
 30
0.0
  0
VERTEX
  5
308
  8
LATERAL
 10
10.19908191608476
 20
117.4185175778652
 30
0.0
  0
VERTEX
  5
309
  8
LATERAL
 10
10.13172338027402
 20
117.7857470022208
 30
0.0
  0
VERTEX
  5
30A
  8
LATERAL
 10
10.07828640052435
 20
118.1560010914405
 30
0.0
  0
VERTEX
  5
30B
  8
LATERAL
 10
10.03868473691193
 20
118.528272766517
 30
0.0
  0
VERTEX
  5
30C
  8
LATERAL
 10
10.01292321190954
 20
118.9025218418839
 30
0.0
  0
VERTEX
  5
30D
  8
LATERAL
 10
10.00105304887268
 20
119.2780223586434
 30
0.0
  0
VERTEX
  5
30E
  8
LATERAL
 10
10.00303097819278
 20
119.6541200967352
 30
0.0
  0
VERTEX
  5
30F
  8
LATERAL
 10
10.01880977644794
 20
120.0300492118808
 30
0.0
  0
VERTEX
  5
310
  8
LATERAL
 10
10.04813031310698
 20
120.4025642268102
 30
0.0
  0
VERTEX
  5
311
  8
LATERAL
 10
10.09200346440082
 20
120.775244951537
 30
0.0
  0
VERTEX
  5
312
  8
LATERAL
 10
10.14835184066339
 20
121.1440706870742
 30
0.0
  0
VERTEX
  5
313
  8
LATERAL
 10
10.21979945055352
 20
121.5096017626734
 30
0.0
  0
VERTEX
  5
314
  8
LATERAL
 10
10.30552892174762
 20
121.8750842429587
 30
0.0
  0
VERTEX
  5
315
  8
LATERAL
 10
10.40552655720319
 20
122.2361426606048
 30
0.0
  0
VERTEX
  5
316
  8
LATERAL
 10
10.5200232711054
 20
122.5922409939024
 30
0.0
  0
VERTEX
  5
317
  8
LATERAL
 10
10.64905887999873
 20
122.9421539756572
 30
0.0
  0
VERTEX
  5
318
  8
LATERAL
 10
10.79265260599129
 20
123.2846894184936
 30
0.0
  0
VERTEX
  5
319
  8
LATERAL
 10
10.95080680207457
 20
123.618694609824
 30
0.0
  0
VERTEX
  5
31A
  8
LATERAL
 10
11.12351255171131
 20
123.9430633959511
 30
0.0
  0
VERTEX
  5
31B
  8
LATERAL
 10
11.3107728852068
 20
124.256769036886
 30
0.0
  0
VERTEX
  5
31C
  8
LATERAL
 10
11.5126443707087
 20
124.5589451457506
 30
0.0
  0
VERTEX
  5
31D
  8
LATERAL
 10
11.72894582814013
 20
124.847809169454
 30
0.0
  0
VERTEX
  5
31E
  8
LATERAL
 10
11.95928809981092
 20
125.1216730739808
 30
0.0
  0
VERTEX
  5
31F
  8
LATERAL
 10
12.20301827787273
 20
125.3786438434919
 30
0.0
  0
VERTEX
  5
320
  8
LATERAL
 10
12.4606352823879
 20
125.6179021059081
 30
0.0
  0
VERTEX
  5
321
  8
LATERAL
 10
12.73031225590387
 20
125.8363624988953
 30
0.0
  0
VERTEX
  5
322
  8
LATERAL
 10
13.01375681115792
 20
126.034344556735
 30
0.0
  0
VERTEX
  5
323
  8
LATERAL
 10
13.30901431376731
 20
126.2089754899023
 30
0.0
  0
VERTEX
  5
324
  8
LATERAL
 10
13.60948898731078
 20
126.3566604016664
 30
0.0
  0
VERTEX
  5
325
  8
LATERAL
 10
13.91607924385096
 20
126.4769630848765
 30
0.0
  0
VERTEX
  5
326
  8
LATERAL
 10
14.22914356446495
 20
126.5697016296654
 30
0.0
  0
VERTEX
  5
327
  8
LATERAL
 10
14.54827231310526
 20
126.6341422510421
 30
0.0
  0
VERTEX
  5
328
  8
LATERAL
 10
14.86959467131271
 20
126.6690432042106
 30
0.0
  0
VERTEX
  5
329
  8
LATERAL
 10
15.19197733678197
 20
126.6742484480125
 30
0.0
  0
VERTEX
  5
32A
  8
LATERAL
 10
15.51976829438706
 20
126.6489491459155
 30
0.0
  0
VERTEX
  5
32B
  8
LATERAL
 10
15.84524414319424
 20
126.5932320938316
 30
0.0
  0
VERTEX
  5
32C
  8
LATERAL
 10
16.16184999541872
 20
126.5086779852929
 30
0.0
  0
VERTEX
  5
32D
  8
LATERAL
 10
16.47184839634463
 20
126.3962075851377
 30
0.0
  0
VERTEX
  5
32E
  8
LATERAL
 10
16.77450757510621
 20
126.2568046880623
 30
0.0
  0
VERTEX
  5
32F
  8
LATERAL
 10
17.06946243715231
 20
126.0912672417143
 30
0.0
  0
VERTEX
  5
330
  8
LATERAL
 10
17.35453634269197
 20
125.9015561373159
 30
0.0
  0
VERTEX
  5
331
  8
LATERAL
 10
17.62828498003375
 20
125.6891624224454
 30
0.0
  0
VERTEX
  5
332
  8
LATERAL
 10
17.89064698962875
 20
125.4559104914694
 30
0.0
  0
VERTEX
  5
333
  8
LATERAL
 10
18.14790659226003
 20
125.1955541737899
 30
0.0
  0
VERTEX
  5
334
  8
LATERAL
 10
18.19796722865533
 20
125.140988080119
 30
0.0
  0
VERTEX
  5
335
  8
LATERAL
 10
18.23041549180664
 20
125.1039043507301
 30
0.0
  0
VERTEX
  5
336
  8
LATERAL
 10
18.27073152063815
 20
125.0593887355374
 30
0.0
  0
VERTEX
  5
337
  8
LATERAL
 10
18.41176964919771
 20
124.9043247157135
 30
0.0
  0
VERTEX
  5
338
  8
LATERAL
 10
18.69028327190165
 20
124.6203192750902
 30
0.0
  0
VERTEX
  5
339
  8
LATERAL
 10
18.8613537275088
 20
124.4601503681126
 30
0.0
  0
VERTEX
  5
33A
  8
LATERAL
 10
19.04898223248449
 20
124.2953415461941
 30
0.0
  0
VERTEX
  5
33B
  8
LATERAL
 10
19.4196711046385
 20
124.0017105358575
 30
0.0
  0
VERTEX
  5
33C
  8
LATERAL
 10
19.82117685056085
 20
123.7284910259302
 30
0.0
  0
VERTEX
  5
33D
  8
LATERAL
 10
20.24408292528699
 20
123.4853069641674
 30
0.0
  0
VERTEX
  5
33E
  8
LATERAL
 10
20.69431784722121
 20
123.2707090107194
 30
0.0
  0
VERTEX
  5
33F
  8
LATERAL
 10
21.16037191183034
 20
123.0949837076735
 30
0.0
  0
VERTEX
  5
340
  8
LATERAL
 10
21.63829608745652
 20
122.9593697377359
 30
0.0
  0
VERTEX
  5
341
  8
LATERAL
 10
22.12768324888896
 20
122.8662893498212
 30
0.0
  0
VERTEX
  5
342
  8
LATERAL
 10
22.62481328139881
 20
122.8174149245642
 30
0.0
  0
VERTEX
  5
343
  8
LATERAL
 10
23.12832063811629
 20
122.8138376316251
 30
0.0
  0
VERTEX
  5
344
  8
LATERAL
 10
23.63417157493109
 20
122.8577872019505
 30
0.0
  0
VERTEX
  5
345
  8
LATERAL
 10
24.13725676844069
 20
122.9477768873337
 30
0.0
  0
VERTEX
  5
346
  8
LATERAL
 10
24.62561218932331
 20
123.0815582320874
 30
0.0
  0
VERTEX
  5
347
  8
LATERAL
 10
25.09691631255055
 20
123.2563985717002
 30
0.0
  0
VERTEX
  5
348
  8
LATERAL
 10
25.54618053677063
 20
123.4668458198369
 30
0.0
  0
VERTEX
  5
349
  8
LATERAL
 10
25.97318179890487
 20
123.709858177087
 30
0.0
  0
VERTEX
  5
34A
  8
LATERAL
 10
26.37713191873218
 20
123.9817908254109
 30
0.0
  0
VERTEX
  5
34B
  8
LATERAL
 10
26.75863835050268
 20
124.2800219894166
 30
0.0
  0
VERTEX
  5
34C
  8
LATERAL
 10
27.11665717022458
 20
124.6022593736996
 30
0.0
  0
VERTEX
  5
34D
  8
LATERAL
 10
27.45028837987741
 20
124.9429719006996
 30
0.0
  0
VERTEX
  5
34E
  8
LATERAL
 10
27.76080879707035
 20
125.3001961991213
 30
0.0
  0
VERTEX
  5
34F
  8
LATERAL
 10
28.04880103599965
 20
125.6731336271148
 30
0.0
  0
VERTEX
  5
350
  8
LATERAL
 10
28.31392352336854
 20
126.0583784688249
 30
0.0
  0
VERTEX
  5
351
  8
LATERAL
 10
28.55744163223824
 20
126.4546178208686
 30
0.0
  0
VERTEX
  5
352
  8
LATERAL
 10
28.77999879042829
 20
126.8603176410718
 30
0.0
  0
VERTEX
  5
353
  8
LATERAL
 10
28.9820350975798
 20
127.273738569653
 30
0.0
  0
VERTEX
  5
354
  8
LATERAL
 10
29.1643056505776
 20
127.6938213462893
 30
0.0
  0
VERTEX
  5
355
  8
LATERAL
 10
29.32611403404337
 20
128.1177904279396
 30
0.0
  0
VERTEX
  5
356
  8
LATERAL
 10
29.4707775977771
 20
128.5474208643884
 30
0.0
  0
VERTEX
  5
357
  8
LATERAL
 10
29.59758410272627
 20
128.9834334376358
 30
0.0
  0
VERTEX
  5
358
  8
LATERAL
 10
29.70740470040926
 20
129.4283122922573
 30
0.0
  0
VERTEX
  5
359
  8
LATERAL
 10
29.79945425241283
 20
129.8766726289252
 30
0.0
  0
VERTEX
  5
35A
  8
LATERAL
 10
29.8739705199356
 20
130.3280482983748
 30
0.0
  0
VERTEX
  5
35B
  8
LATERAL
 10
29.93109024390799
 20
130.781634523408
 30
0.0
  0
VERTEX
  5
35C
  8
LATERAL
 10
29.97093491340036
 20
131.2366354756889
 30
0.0
  0
VERTEX
  5
35D
  8
LATERAL
 10
29.99361033482216
 20
131.6922622185859
 30
0.0
  0
VERTEX
  5
35E
  8
LATERAL
 10
29.99920629263261
 20
132.1477308539354
 30
0.0
  0
VERTEX
  5
35F
  8
LATERAL
 10
29.99065375341127
 20
132.4884291313106
 30
0.0
  0
VERTEX
  5
360
  8
LATERAL
 10
29.99065375341129
 20
141.4884291313106
 30
0.0
  0
VERTEX
  5
361
  8
LATERAL
 10
780.636162579244
 20
141.28
 30
0.0
  0
VERTEX
  5
362
  8
LATERAL
 10
786.0025132444703
 20
141.28
 30
0.0
  0
VERTEX
  5
363
  8
LATERAL
 10
786.0025132444703
 20
133.28
 30
0.0
  0
VERTEX
  5
364
  8
LATERAL
 10
786.0019289615669
 20
132.6381731996137
 30
0.0
  0
VERTEX
  5
365
  8
LATERAL
 10
785.9953250660822
 20
132.5983074733684
 30
0.0
  0
VERTEX
  5
366
  8
LATERAL
 10
785.9885811279995
 20
132.5584445644632
 30
0.0
  0
VERTEX
  5
367
  8
LATERAL
 10
785.9990521013592
 20
132.1413236963644
 30
0.0
  0
VERTEX
  5
368
  8
LATERAL
 10
785.9939158133743
 20
131.7232687072211
 30
0.0
  0
VERTEX
  5
369
  8
LATERAL
 10
785.9731061315817
 20
131.3051310524987
 30
0.0
  0
VERTEX
  5
36A
  8
LATERAL
 10
785.9365569235181
 20
130.8877621876625
 30
0.0
  0
VERTEX
  5
36B
  8
LATERAL
 10
785.8842020567198
 20
130.4720135681777
 30
0.0
  0
VERTEX
  5
36C
  8
LATERAL
 10
785.8159753987238
 20
130.0587366495096
 30
0.0
  0
VERTEX
  5
36D
  8
LATERAL
 10
785.7318108170668
 20
129.6487828871235
 30
0.0
  0
VERTEX
  5
36E
  8
LATERAL
 10
785.6316421792853
 20
129.2430037364848
 30
0.0
  0
VERTEX
  5
36F
  8
LATERAL
 10
785.516395339866
 20
128.8467380162471
 30
0.0
  0
VERTEX
  5
370
  8
LATERAL
 10
785.3847476495422
 20
128.4557628930754
 30
0.0
  0
VERTEX
  5
371
  8
LATERAL
 10
785.2380217575806
 20
128.0713128396183
 30
0.0
  0
VERTEX
  5
372
  8
LATERAL
 10
785.0736605420659
 20
127.6925060896983
 30
0.0
  0
VERTEX
  5
373
  8
LATERAL
 10
784.891906488697
 20
127.3205881380411
 30
0.0
  0
VERTEX
  5
374
  8
LATERAL
 10
784.6925612000839
 20
126.9572012741527
 30
0.0
  0
VERTEX
  5
375
  8
LATERAL
 10
784.4754924113
 20
126.6039988096162
 30
0.0
  0
VERTEX
  5
376
  8
LATERAL
 10
784.2405678574186
 20
126.2626340560148
 30
0.0
  0
VERTEX
  5
377
  8
LATERAL
 10
783.9870600813431
 20
125.9343525080743
 30
0.0
  0
VERTEX
  5
378
  8
LATERAL
 10
783.7150352155369
 20
125.6214136916249
 30
0.0
  0
VERTEX
  5
379
  8
LATERAL
 10
783.4242287301468
 20
125.3244348429911
 30
0.0
  0
VERTEX
  5
37A
  8
LATERAL
 10
783.1154342147322
 20
125.0465021437946
 30
0.0
  0
VERTEX
  5
37B
  8
LATERAL
 10
782.7892358393863
 20
124.7915063872943
 30
0.0
  0
VERTEX
  5
37C
  8
LATERAL
 10
782.6196763367025
 20
124.6728082599452
 30
0.0
  0
VERTEX
  5
37D
  8
LATERAL
 10
782.4459091560396
 20
124.560384450054
 30
0.0
  0
VERTEX
  5
37E
  8
LATERAL
 10
782.2680086964192
 20
124.4545408202635
 30
0.0
  0
VERTEX
  5
37F
  8
LATERAL
 10
782.086049356862
 20
124.3555832332166
 30
0.0
  0
VERTEX
  5
380
  8
LATERAL
 10
781.9001055363894
 20
124.2638175515563
 30
0.0
  0
VERTEX
  5
381
  8
LATERAL
 10
781.7102516340232
 20
124.1795496379253
 30
0.0
  0
VERTEX
  5
382
  8
LATERAL
 10
781.5161197879354
 20
124.1027478038516
 30
0.0
  0
VERTEX
  5
383
  8
LATERAL
 10
781.3190119809981
 20
124.0344109250834
 30
0.0
  0
VERTEX
  5
384
  8
LATERAL
 10
781.1191266106011
 20
123.974803531474
 30
0.0
  0
VERTEX
  5
385
  8
LATERAL
 10
780.9166620741346
 20
123.9241901528767
 30
0.0
  0
VERTEX
  5
386
  8
LATERAL
 10
780.7104169651815
 20
123.882394436056
 30
0.0
  0
VERTEX
  5
387
  8
LATERAL
 10
780.5025846771084
 20
123.8501217939538
 30
0.0
  0
VERTEX
  5
388
  8
LATERAL
 10
780.2958105084485
 20
123.8273722265704
 30
0.0
  0
VERTEX
  5
389
  8
LATERAL
 10
780.088507280082
 20
123.8141457339056
 30
0.0
  0
VERTEX
  5
38A
  8
LATERAL
 10
779.8825335897805
 20
123.8109231540782
 30
0.0
  0
VERTEX
  5
38B
  8
LATERAL
 10
779.6773948218282
 20
123.817066584369
 30
0.0
  0
VERTEX
  5
38C
  8
LATERAL
 10
779.4732645739417
 20
123.8324850926411
 30
0.0
  0
VERTEX
  5
38D
  8
LATERAL
 10
779.2703164438371
 20
123.8570877467573
 30
0.0
  0
VERTEX
  5
38E
  8
LATERAL
 10
779.0687240292307
 20
123.8907836145805
 30
0.0
  0
VERTEX
  5
38F
  8
LATERAL
 10
778.8686609278385
 20
123.9334817639738
 30
0.0
  0
VERTEX
  5
390
  8
LATERAL
 10
778.670300737377
 20
123.9850912627999
 30
0.0
  0
VERTEX
  5
391
  8
LATERAL
 10
778.4738170555623
 20
124.045521178922
 30
0.0
  0
VERTEX
  5
392
  8
LATERAL
 10
778.2785940238299
 20
124.1142989407789
 30
0.0
  0
VERTEX
  5
393
  8
LATERAL
 10
778.0865453503368
 20
124.1915416579414
 30
0.0
  0
VERTEX
  5
394
  8
LATERAL
 10
777.8959956793458
 20
124.2777783901159
 30
0.0
  0
VERTEX
  5
395
  8
LATERAL
 10
777.7091494263009
 20
124.3714219581828
 30
0.0
  0
VERTEX
  5
396
  8
LATERAL
 10
777.5285306468859
 20
124.4707970064044
 30
0.0
  0
VERTEX
  5
397
  8
LATERAL
 10
777.35247500744
 20
124.576520771105
 30
0.0
  0
VERTEX
  5
398
  8
LATERAL
 10
777.1805195807202
 20
124.6888577821381
 30
0.0
  0
VERTEX
  5
399
  8
LATERAL
 10
777.0122014394833
 20
124.808072569357
 30
0.0
  0
VERTEX
  5
39A
  8
LATERAL
 10
776.6898277249331
 20
125.0634320544055
 30
0.0
  0
VERTEX
  5
39B
  8
LATERAL
 10
776.5332260517819
 20
125.2009875781195
 30
0.0
  0
VERTEX
  5
39C
  8
LATERAL
 10
776.3893218115887
 20
125.335721450065
 30
0.0
  0
VERTEX
  5
39D
  8
LATERAL
 10
776.1389002171351
 20
125.5910809351136
 30
0.0
  0
VERTEX
  5
39E
  8
LATERAL
 10
776.0112204746107
 20
125.7314581105961
 30
0.0
  0
VERTEX
  5
39F
  8
LATERAL
 10
775.9773606533888
 20
125.7688449965286
 30
0.0
  0
VERTEX
  5
3A0
  8
LATERAL
 10
775.9427954192248
 20
125.8083481212874
 30
0.0
  0
VERTEX
  5
3A1
  8
LATERAL
 10
775.8722541250124
 20
125.8852381319789
 30
0.0
  0
VERTEX
  5
3A2
  8
LATERAL
 10
775.5792432241782
 20
126.1817760975239
 30
0.0
  0
VERTEX
  5
3A3
  8
LATERAL
 10
775.2677152336131
 20
126.4587388539249
 30
0.0
  0
VERTEX
  5
3A4
  8
LATERAL
 10
774.9388164493481
 20
126.713921985738
 30
0.0
  0
VERTEX
  5
3A5
  8
LATERAL
 10
774.7675554134933
 20
126.8325195366324
 30
0.0
  0
VERTEX
  5
3A6
  8
LATERAL
 10
774.5919296350592
 20
126.9447683710477
 30
0.0
  0
VERTEX
  5
3A7
  8
LATERAL
 10
774.4123290200272
 20
127.05020831726
 30
0.0
  0
VERTEX
  5
3A8
  8
LATERAL
 10
774.2291159191861
 20
127.1483902256225
 30
0.0
  0
VERTEX
  5
3A9
  8
LATERAL
 10
774.0423812646732
 20
127.2390660993977
 30
0.0
  0
VERTEX
  5
3AA
  8
LATERAL
 10
773.8522159886253
 20
127.3219879418481
 30
0.0
  0
VERTEX
  5
3AB
  8
LATERAL
 10
773.6587110231796
 20
127.3969077562363
 30
0.0
  0
VERTEX
  5
3AC
  8
LATERAL
 10
773.4619573004729
 20
127.4635775458248
 30
0.0
  0
VERTEX
  5
3AD
  8
LATERAL
 10
773.2620457526426
 20
127.5217493138763
 30
0.0
  0
VERTEX
  5
3AE
  8
LATERAL
 10
773.0590673118257
 20
127.571175063653
 30
0.0
  0
VERTEX
  5
3AF
  8
LATERAL
 10
772.8520286133124
 20
127.6115599545896
 30
0.0
  0
VERTEX
  5
3B0
  8
LATERAL
 10
772.6428736759731
 20
127.6424217708074
 30
0.0
  0
VERTEX
  5
3B1
  8
LATERAL
 10
772.433189678927
 20
127.6636723356889
 30
0.0
  0
VERTEX
  5
3B2
  8
LATERAL
 10
772.2224475624676
 20
127.6748707661451
 30
0.0
  0
VERTEX
  5
3B3
  8
LATERAL
 10
772.0146924289351
 20
127.6763477244927
 30
0.0
  0
VERTEX
  5
3B4
  8
LATERAL
 10
771.8074002226459
 20
127.6681693431949
 30
0.0
  0
VERTEX
  5
3B5
  8
LATERAL
 10
771.6007693409899
 20
127.6504678871785
 30
0.0
  0
VERTEX
  5
3B6
  8
LATERAL
 10
771.3949981813573
 20
127.6233756213701
 30
0.0
  0
VERTEX
  5
3B7
  8
LATERAL
 10
771.1901115434216
 20
127.5867740584396
 30
0.0
  0
VERTEX
  5
3B8
  8
LATERAL
 10
770.9876883397446
 20
127.5411288811495
 30
0.0
  0
VERTEX
  5
3B9
  8
LATERAL
 10
770.787877368369
 20
127.4866550200056
 30
0.0
  0
VERTEX
  5
3BA
  8
LATERAL
 10
770.590827427337
 20
127.4235674055138
 30
0.0
  0
VERTEX
  5
3BB
  8
LATERAL
 10
770.3966873146913
 20
127.3520809681798
 30
0.0
  0
VERTEX
  5
3BC
  8
LATERAL
 10
770.2056058284745
 20
127.2724106385094
 30
0.0
  0
VERTEX
  5
3BD
  8
LATERAL
 10
770.0177317667287
 20
127.1847713470086
 30
0.0
  0
VERTEX
  5
3BE
  8
LATERAL
 10
769.8332139274968
 20
127.0893780241829
 30
0.0
  0
VERTEX
  5
3BF
  8
LATERAL
 10
769.6505891300276
 20
126.9861672930886
 30
0.0
  0
VERTEX
  5
3C0
  8
LATERAL
 10
769.4721306777476
 20
126.8758142559552
 30
0.0
  0
VERTEX
  5
3C1
  8
LATERAL
 10
769.1285063983157
 20
126.6357975023978
 30
0.0
  0
VERTEX
  5
3C2
  8
LATERAL
 10
768.8048982111169
 20
126.3736484177814
 30
0.0
  0
VERTEX
  5
3C3
  8
LATERAL
 10
768.499278053942
 20
126.0898078851946
 30
0.0
  0
VERTEX
  5
3C4
  8
LATERAL
 10
768.2132000396795
 20
125.7881887420508
 30
0.0
  0
VERTEX
  5
3C5
  8
LATERAL
 10
767.9454407177576
 20
125.4698380856861
 30
0.0
  0
VERTEX
  5
3C6
  8
LATERAL
 10
767.6960662206399
 20
125.1368060224635
 30
0.0
  0
VERTEX
  5
3C7
  8
LATERAL
 10
767.4651426807897
 20
124.791142658746
 30
0.0
  0
VERTEX
  5
3C8
  8
LATERAL
 10
767.252324280534
 20
124.4346211712065
 30
0.0
  0
VERTEX
  5
3C9
  8
LATERAL
 10
767.0570723158487
 20
124.0679070177571
 30
0.0
  0
VERTEX
  5
3CA
  8
LATERAL
 10
766.8791635896702
 20
123.6921823161798
 30
0.0
  0
VERTEX
  5
3CB
  8
LATERAL
 10
766.7183749049345
 20
123.3086291842566
 30
0.0
  0
VERTEX
  5
3CC
  8
LATERAL
 10
766.5744830645783
 20
122.9184297397693
 30
0.0
  0
VERTEX
  5
3CD
  8
LATERAL
 10
766.4472648715375
 20
122.5227661004998
 30
0.0
  0
VERTEX
  5
3CE
  8
LATERAL
 10
766.3364971287488
 20
122.1228203842301
 30
0.0
  0
VERTEX
  5
3CF
  8
LATERAL
 10
766.2419566391482
 20
121.7197747087422
 30
0.0
  0
VERTEX
  5
3D0
  8
LATERAL
 10
766.1629503896304
 20
121.3155730929057
 30
0.0
  0
VERTEX
  5
3D1
  8
LATERAL
 10
766.1008740507236
 20
120.9092552382427
 30
0.0
  0
VERTEX
  5
3D2
  8
LATERAL
 10
766.0527296174237
 20
120.5002920850468
 30
0.0
  0
VERTEX
  5
3D3
  8
LATERAL
 10
766.0204569753215
 20
120.0902708124379
 30
0.0
  0
VERTEX
  5
3D4
  8
LATERAL
 10
766.003141292008
 20
119.6777254841453
 30
0.0
  0
VERTEX
  5
3D5
  8
LATERAL
 10
766.0009699427956
 20
119.2648494935361
 30
0.0
  0
VERTEX
  5
3D6
  8
LATERAL
 10
766.0140090601476
 20
118.8523702977068
 30
0.0
  0
VERTEX
  5
3D7
  8
LATERAL
 10
766.0423247765275
 20
118.4410153537541
 30
0.0
  0
VERTEX
  5
3D8
  8
LATERAL
 10
766.0858730036263
 20
118.031644383701
 30
0.0
  0
VERTEX
  5
3D9
  8
LATERAL
 10
766.144697829753
 20
117.6240589901577
 30
0.0
  0
VERTEX
  5
3DA
  8
LATERAL
 10
766.2189976522976
 20
117.2189866302208
 30
0.0
  0
VERTEX
  5
3DB
  8
LATERAL
 10
766.3089708686499
 20
116.8171547609868
 30
0.0
  0
VERTEX
  5
3DC
  8
LATERAL
 10
766.4149481411266
 20
116.4168439384091
 30
0.0
  0
VERTEX
  5
3DD
  8
LATERAL
 10
766.5372601320445
 20
116.0208317259475
 30
0.0
  0
VERTEX
  5
3DE
  8
LATERAL
 10
766.6761052387933
 20
115.6302423754786
 30
0.0
  0
VERTEX
  5
3DF
  8
LATERAL
 10
766.8316818587631
 20
115.2462001388787
 30
0.0
  0
VERTEX
  5
3E0
  8
LATERAL
 10
767.0038026166412
 20
114.8694655394761
 30
0.0
  0
VERTEX
  5
3E1
  8
LATERAL
 10
767.1933823448368
 20
114.5009313655256
 30
0.0
  0
VERTEX
  5
3E2
  8
LATERAL
 10
767.4006855732032
 20
114.1419202662939
 30
0.0
  0
VERTEX
  5
3E3
  8
LATERAL
 10
767.6259768315937
 20
113.7937548910473
 30
0.0
  0
VERTEX
  5
3E4
  8
LATERAL
 10
767.8689695460007
 20
113.4580334409828
 30
0.0
  0
VERTEX
  5
3E5
  8
LATERAL
 10
768.1303470852117
 20
113.1358691458997
 30
0.0
  0
VERTEX
  5
3E6
  8
LATERAL
 10
768.4102417141535
 20
112.8294443770878
 30
0.0
  0
VERTEX
  5
3E7
  8
LATERAL
 10
768.7087856977525
 20
112.5409415058367
 30
0.0
  0
VERTEX
  5
3E8
  8
LATERAL
 10
769.0257806386192
 20
112.2724437047411
 30
0.0
  0
VERTEX
  5
3E9
  8
LATERAL
 10
769.1911889514697
 20
112.1466266932671
 30
0.0
  0
VERTEX
  5
3EA
  8
LATERAL
 10
769.3612926692164
 20
112.0266954710289
 30
0.0
  0
VERTEX
  5
3EB
  8
LATERAL
 10
769.5366098294885
 20
111.9124736847911
 30
0.0
  0
VERTEX
  5
3EC
  8
LATERAL
 10
769.7162917323399
 20
111.804931277349
 30
0.0
  0
VERTEX
  5
3ED
  8
LATERAL
 10
769.8999415829907
 20
111.7043989110192
 30
0.0
  0
VERTEX
  5
3EE
  8
LATERAL
 10
770.0871625866611
 20
111.6112072481185
 30
0.0
  0
VERTEX
  5
3EF
  8
LATERAL
 10
770.2759762804899
 20
111.5265880057761
 30
0.0
  0
VERTEX
  5
3F0
  8
LATERAL
 10
770.4677328689365
 20
111.4500865233067
 30
0.0
  0
VERTEX
  5
3F1
  8
LATERAL
 10
770.6622670208428
 20
111.3818846649844
 30
0.0
  0
VERTEX
  5
3F2
  8
LATERAL
 10
770.8594134050504
 20
111.3221642950835
 30
0.0
  0
VERTEX
  5
3F3
  8
LATERAL
 10
771.059006690401
 20
111.271107277878
 30
0.0
  0
VERTEX
  5
3F4
  8
LATERAL
 10
771.2608815457361
 20
111.2288954776421
 30
0.0
  0
VERTEX
  5
3F5
  8
LATERAL
 10
771.4648726398975
 20
111.19571075865
 30
0.0
  0
VERTEX
  5
3F6
  8
LATERAL
 10
771.6708146417272
 20
111.1717349851757
 30
0.0
  0
VERTEX
  5
3F7
  8
LATERAL
 10
771.8772581480706
 20
111.1573401523255
 30
0.0
  0
VERTEX
  5
3F8
  8
LATERAL
 10
772.0838339193405
 20
111.1523361292674
 30
0.0
  0
VERTEX
  5
3F9
  8
LATERAL
 10
772.2904096906103
 20
111.1568551809278
 30
0.0
  0
VERTEX
  5
3FA
  8
LATERAL
 10
772.4968531969535
 20
111.1710295722336
 30
0.0
  0
VERTEX
  5
3FB
  8
LATERAL
 10
772.7058317810574
 20
111.1949254356481
 30
0.0
  0
VERTEX
  5
3FC
  8
LATERAL
 10
772.9137522457484
 20
111.2288734334877
 30
0.0
  0
VERTEX
  5
3FD
  8
LATERAL
 10
773.1197328248483
 20
111.2720799761928
 30
0.0
  0
VERTEX
  5
3FE
  8
LATERAL
 10
773.3235971651219
 20
111.3248095936165
 30
0.0
  0
VERTEX
  5
3FF
  8
LATERAL
 10
773.5229727644473
 20
111.3854737288794
 30
0.0
  0
VERTEX
  5
400
  8
LATERAL
 10
773.7189590750273
 20
111.4545945528899
 30
0.0
  0
VERTEX
  5
401
  8
LATERAL
 10
773.9114734312828
 20
111.5318992692367
 30
0.0
  0
VERTEX
  5
402
  8
LATERAL
 10
774.1004331676347
 20
111.6171150815087
 30
0.0
  0
VERTEX
  5
403
  8
LATERAL
 10
774.2857556185038
 20
111.7099691932946
 30
0.0
  0
VERTEX
  5
404
  8
LATERAL
 10
774.467358118311
 20
111.8101888081832
 30
0.0
  0
VERTEX
  5
405
  8
LATERAL
 10
774.6451580014771
 20
111.9175011297634
 30
0.0
  0
VERTEX
  5
406
  8
LATERAL
 10
774.8190726024227
 20
112.0316333616238
 30
0.0
  0
VERTEX
  5
407
  8
LATERAL
 10
775.1538792200779
 20
112.277734301807
 30
0.0
  0
VERTEX
  5
408
  8
LATERAL
 10
775.4701687480024
 20
112.5465848093737
 30
0.0
  0
VERTEX
  5
409
  8
LATERAL
 10
775.7692638354625
 20
112.8358041156441
 30
0.0
  0
VERTEX
  5
40A
  8
LATERAL
 10
775.9117572497714
 20
112.9874678982005
 30
0.0
  0
VERTEX
  5
40B
  8
LATERAL
 10
776.0507235993696
 20
113.1426587454677
 30
0.0
  0
VERTEX
  5
40C
  8
LATERAL
 10
776.1918061877942
 20
113.2957333539084
 30
0.0
  0
VERTEX
  5
40D
  8
LATERAL
 10
776.3378266668137
 20
113.4438700717542
 30
0.0
  0
VERTEX
  5
40E
  8
LATERAL
 10
776.6425650578109
 20
113.7246244227192
 30
0.0
  0
VERTEX
  5
40F
  8
LATERAL
 10
776.8019883827308
 20
113.8586528817225
 30
0.0
  0
VERTEX
  5
410
  8
LATERAL
 10
776.964233359419
 20
113.9849217983625
 30
0.0
  0
VERTEX
  5
411
  8
LATERAL
 10
777.2993045069275
 20
114.2191188951475
 30
0.0
  0
VERTEX
  5
412
  8
LATERAL
 10
777.4738390997168
 20
114.327080141524
 30
0.0
  0
VERTEX
  5
413
  8
LATERAL
 10
777.6517464481357
 20
114.4278329493982
 30
0.0
  0
VERTEX
  5
414
  8
LATERAL
 10
777.8334894794273
 20
114.52157571616
 30
0.0
  0
VERTEX
  5
415
  8
LATERAL
 10
778.0195311208352
 20
114.6085068391994
 30
0.0
  0
VERTEX
  5
416
  8
LATERAL
 10
778.2114034410926
 20
114.6889239146014
 30
0.0
  0
VERTEX
  5
417
  8
LATERAL
 10
778.4053920001764
 20
114.760876034698
 30
0.0
  0
VERTEX
  5
418
  8
LATERAL
 10
778.6011440916157
 20
114.8242750228713
 30
0.0
  0
VERTEX
  5
419
  8
LATERAL
 10
778.7990124218811
 20
114.8786799960325
 30
0.0
  0
VERTEX
  5
41A
  8
LATERAL
 10
778.9982764226746
 20
114.9244670825668
 30
0.0
  0
VERTEX
  5
41B
  8
LATERAL
 10
779.198639875671
 20
114.961268420647
 30
0.0
  0
VERTEX
  5
41C
  8
LATERAL
 10
779.3999457162698
 20
114.9890261443677
 30
0.0
  0
VERTEX
  5
41D
  8
LATERAL
 10
779.6020368798705
 20
115.0076823878233
 30
0.0
  0
VERTEX
  5
41E
  8
LATERAL
 10
779.8047563018728
 20
115.0171792851086
 30
0.0
  0
VERTEX
  5
41F
  8
LATERAL
 10
780.0079469176762
 20
115.017458970318
 30
0.0
  0
VERTEX
  5
420
  8
LATERAL
 10
780.2114516626805
 20
115.0084635775463
 30
0.0
  0
VERTEX
  5
421
  8
LATERAL
 10
780.4151134722852
 20
114.990135240888
 30
0.0
  0
VERTEX
  5
422
  8
LATERAL
 10
780.6210499630762
 20
114.9622273413653
 30
0.0
  0
VERTEX
  5
423
  8
LATERAL
 10
780.8251347448942
 20
114.9250608969772
 30
0.0
  0
VERTEX
  5
424
  8
LATERAL
 10
781.0273678177391
 20
114.8786359077237
 30
0.0
  0
VERTEX
  5
425
  8
LATERAL
 10
781.2277491816109
 20
114.8229523736048
 30
0.0
  0
VERTEX
  5
426
  8
LATERAL
 10
781.4247798340077
 20
114.759377032196
 30
0.0
  0
VERTEX
  5
427
  8
LATERAL
 10
781.6189006580182
 20
114.6873367354817
 30
0.0
  0
VERTEX
  5
428
  8
LATERAL
 10
781.809847123789
 20
114.6070960133152
 30
0.0
  0
VERTEX
  5
429
  8
LATERAL
 10
781.9973547014672
 20
114.5189193955497
 30
0.0
  0
VERTEX
  5
42A
  8
LATERAL
 10
782.1802646951846
 20
114.4238071356932
 30
0.0
  0
VERTEX
  5
42B
  8
LATERAL
 10
782.3591323420815
 20
114.3217344340719
 30
0.0
  0
VERTEX
  5
42C
  8
LATERAL
 10
782.5338832431362
 20
114.2130154198865
 30
0.0
  0
VERTEX
  5
42D
  8
LATERAL
 10
782.7044429993279
 20
114.0979642223378
 30
0.0
  0
VERTEX
  5
42E
  8
LATERAL
 10
783.0326914810366
 20
113.8501217939538
 30
0.0
  0
VERTEX
  5
42F
  8
LATERAL
 10
783.343282595038
 20
113.5807201825261
 30
0.0
  0
VERTEX
  5
430
  8
LATERAL
 10
783.63717526205
 20
113.2910599931668
 30
0.0
  0
VERTEX
  5
431
  8
LATERAL
 10
783.9125508393314
 20
112.9839408334899
 30
0.0
  0
VERTEX
  5
432
  8
LATERAL
 10
784.1692329736463
 20
112.6627134149707
 30
0.0
  0
VERTEX
  5
433
  8
LATERAL
 10
784.408456137644
 20
112.3272013843734
 30
0.0
  0
VERTEX
  5
434
  8
LATERAL
 10
784.6292393664512
 20
111.9797083558372
 30
0.0
  0
VERTEX
  5
435
  8
LATERAL
 10
784.8324974924776
 20
111.6217002656325
 30
0.0
  0
VERTEX
  5
436
  8
LATERAL
 10
785.0184289131131
 20
111.2545658954891
 30
0.0
  0
VERTEX
  5
437
  8
LATERAL
 10
785.1872320257478
 20
110.8796940271368
 30
0.0
  0
VERTEX
  5
438
  8
LATERAL
 10
785.3396012212464
 20
110.4987710383903
 30
0.0
  0
VERTEX
  5
439
  8
LATERAL
 10
785.4743350931918
 20
110.1136155719912
 30
0.0
  0
VERTEX
  5
43A
  8
LATERAL
 10
785.5934617037929
 20
109.722816802055
 30
0.0
  0
VERTEX
  5
43B
  8
LATERAL
 10
785.6972455829026
 20
109.3277855544661
 30
0.0
  0
VERTEX
  5
43C
  8
LATERAL
 10
785.7856426422125
 20
108.9280809461356
 30
0.0
  0
VERTEX
  5
43D
  8
LATERAL
 10
785.8584324401779
 20
108.5252019795656
 30
0.0
  0
VERTEX
  5
43E
  8
LATERAL
 10
785.915879506652
 20
108.1199422443158
 30
0.0
  0
VERTEX
  5
43F
  8
LATERAL
 10
785.9582483714884
 20
107.7130953299463
 30
0.0
  0
VERTEX
  5
440
  8
LATERAL
 10
785.9860240060843
 20
107.3050139429281
 30
0.0
  0
VERTEX
  5
441
  8
LATERAL
 10
785.9984569091893
 20
106.89693255591
 30
0.0
  0
VERTEX
  5
442
  8
LATERAL
 10
785.9963406703629
 20
106.4896447584517
 30
0.0
  0
VERTEX
  5
443
  8
LATERAL
 10
785.979410759752
 20
106.0828860206999
 30
0.0
  0
VERTEX
  5
444
  8
LATERAL
 10
785.9471160734954
 20
105.6748487219906
 30
0.0
  0
VERTEX
  5
445
  8
LATERAL
 10
785.8998754505276
 20
105.2681340725478
 30
0.0
  0
VERTEX
  5
446
  8
LATERAL
 10
785.8375566259219
 20
104.8635356619313
 30
0.0
  0
VERTEX
  5
447
  8
LATERAL
 10
785.7600273347517
 20
104.461847079701
 30
0.0
  0
VERTEX
  5
448
  8
LATERAL
 10
785.6670230471636
 20
104.0629581050849
 30
0.0
  0
VERTEX
  5
449
  8
LATERAL
 10
785.5582792333045
 20
103.6679048133416
 30
0.0
  0
VERTEX
  5
44A
  8
LATERAL
 10
785.4336636282476
 20
103.2776130589575
 30
0.0
  0
VERTEX
  5
44B
  8
LATERAL
 10
785.2930439670662
 20
102.8930086964193
 30
0.0
  0
VERTEX
  5
44C
  8
LATERAL
 10
785.1364422939149
 20
102.5156127723835
 30
0.0
  0
VERTEX
  5
44D
  8
LATERAL
 10
784.9629107101526
 20
102.1445655648268
 30
0.0
  0
VERTEX
  5
44E
  8
LATERAL
 10
784.7720083326906
 20
101.7807488399268
 30
0.0
  0
VERTEX
  5
44F
  8
LATERAL
 10
784.563646984911
 20
101.4264551897454
 30
0.0
  0
VERTEX
  5
450
  8
LATERAL
 10
784.3376062252696
 20
101.0820373207539
 30
0.0
  0
VERTEX
  5
451
  8
LATERAL
 10
784.0933129057505
 20
100.7503168847205
 30
0.0
  0
VERTEX
  5
452
  8
LATERAL
 10
783.830767026354
 20
100.4328810607651
 30
0.0
  0
VERTEX
  5
453
  8
LATERAL
 10
783.5499685870801
 20
100.1313170280075
 30
0.0
  0
VERTEX
  5
454
  8
LATERAL
 10
783.25087349962
 20
99.8470356123319
 30
0.0
  0
VERTEX
  5
455
  8
LATERAL
 10
782.9327322627223
 20
99.58250575903573
 30
0.0
  0
VERTEX
  5
456
  8
LATERAL
 10
782.5984547047739
 20
99.34187176915401
 30
0.0
  0
VERTEX
  5
457
  8
LATERAL
 10
782.4251325404789
 20
99.23064798792021
 30
0.0
  0
VERTEX
  5
458
  8
LATERAL
 10
782.247776295921
 20
99.12610358548214
 30
0.0
  0
VERTEX
  5
459
  8
LATERAL
 10
782.0661641517963
 20
99.02819722905022
 30
0.0
  0
VERTEX
  5
45A
  8
LATERAL
 10
781.8811709854842
 20
98.93778037408973
 30
0.0
  0
VERTEX
  5
45B
  8
LATERAL
 10
781.6929207953533
 20
98.85506795110646
 30
0.0
  0
VERTEX
  5
45C
  8
LATERAL
 10
781.5015375797725
 20
98.78027489060628
 30
0.0
  0
VERTEX
  5
45D
  8
LATERAL
 10
781.3071453371103
 20
98.71361612309494
 30
0.0
  0
VERTEX
  5
45E
  8
LATERAL
 10
781.1098680657358
 20
98.65530657907829
 30
0.0
  0
VERTEX
  5
45F
  8
LATERAL
 10
780.9098297640173
 20
98.60556118906209
 30
0.0
  0
VERTEX
  5
460
  8
LATERAL
 10
780.707154430324
 20
98.56459488355216
 30
0.0
  0
VERTEX
  5
461
  8
LATERAL
 10
780.4999393785754
 20
98.5324104180678
 30
0.0
  0
VERTEX
  5
462
  8
LATERAL
 10
780.2916662074135
 20
98.5102780870087
 30
0.0
  0
VERTEX
  5
463
  8
LATERAL
 10
780.0846275089004
 20
98.49713977096167
 30
0.0
  0
VERTEX
  5
464
  8
LATERAL
 10
779.8775888103874
 20
98.49405358933988
 30
0.0
  0
VERTEX
  5
465
  8
LATERAL
 10
779.673140300021
 20
98.50027004089233
 30
0.0
  0
VERTEX
  5
466
  8
LATERAL
 10
779.4694192467514
 20
98.51574503731015
 30
0.0
  0
VERTEX
  5
467
  8
LATERAL
 10
779.2666240479683
 20
98.54047857859334
 30
0.0
  0
VERTEX
  5
468
  8
LATERAL
 10
779.0649531010616
 20
98.57447066474188
 30
0.0
  0
VERTEX
  5
469
  8
LATERAL
 10
778.864099165629
 20
98.61748569885519
 30
0.0
  0
VERTEX
  5
46A
  8
LATERAL
 10
778.6658326628238
 20
98.66913928599021
 30
0.0
  0
VERTEX
  5
46B
  8
LATERAL
 10
778.4702941241308
 20
98.72920822908324
 30
0.0
  0
VERTEX
  5
46C
  8
LATERAL
 10
778.2776240810344
 20
98.79746933107053
 30
0.0
  0
VERTEX
  5
46D
  8
LATERAL
 10
778.0879630650194
 20
98.87369939488838
 30
0.0
  0
VERTEX
  5
46E
  8
LATERAL
 10
777.9014516075702
 20
98.95767522347303
 30
0.0
  0
VERTEX
  5
46F
  8
LATERAL
 10
777.7182302401711
 20
99.04917361976081
 30
0.0
  0
VERTEX
  5
470
  8
LATERAL
 10
777.5384394943072
 20
99.14797138668796
 30
0.0
  0
VERTEX
  5
471
  8
LATERAL
 10
777.3606754328922
 20
99.25519415389063
 30
0.0
  0
VERTEX
  5
472
  8
LATERAL
 10
777.1885546750141
 20
99.36664939874613
 30
0.0
  0
VERTEX
  5
473
  8
LATERAL
 10
776.8598322439848
 20
99.60719521201013
 30
0.0
  0
VERTEX
  5
474
  8
LATERAL
 10
776.5487451365085
 20
99.87031423942194
 30
0.0
  0
VERTEX
  5
475
  8
LATERAL
 10
776.3984921798362
 20
100.0092805890202
 30
0.0
  0
VERTEX
  5
476
  8
LATERAL
 10
776.2517662878747
 20
100.1553010680397
 30
0.0
  0
VERTEX
  5
477
  8
LATERAL
 10
776.1092728735659
 20
100.3055540247119
 30
0.0
  0
VERTEX
  5
478
  8
LATERAL
 10
776.0394369922957
 20
100.3824440354033
 30
0.0
  0
VERTEX
  5
479
  8
LATERAL
 10
776.0048717581316
 20
100.4212417472201
 30
0.0
  0
VERTEX
  5
47A
  8
LATERAL
 10
775.9703065239676
 20
100.4600394590368
 30
0.0
  0
VERTEX
  5
47B
  8
LATERAL
 10
775.686025108292
 20
100.7612507853234
 30
0.0
  0
VERTEX
  5
47C
  8
LATERAL
 10
775.3835793093567
 20
101.0437686686437
 30
0.0
  0
VERTEX
  5
47D
  8
LATERAL
 10
775.0631454803973
 20
101.3051241637003
 30
0.0
  0
VERTEX
  5
47E
  8
LATERAL
 10
774.7272146108655
 20
101.5422972213347
 30
0.0
  0
VERTEX
  5
47F
  8
LATERAL
 10
774.5530905904527
 20
101.6514516075704
 30
0.0
  0
VERTEX
  5
480
  8
LATERAL
 10
774.3750151553562
 20
101.7539431481261
 30
0.0
  0
VERTEX
  5
481
  8
LATERAL
 10
774.193104037387
 20
101.8494907800328
 30
0.0
  0
VERTEX
  5
482
  8
LATERAL
 10
774.0074729683556
 20
101.9378134403214
 30
0.0
  0
VERTEX
  5
483
  8
LATERAL
 10
773.8182376800733
 20
102.0186300660227
 30
0.0
  0
VERTEX
  5
484
  8
LATERAL
 10
773.6255139043504
 20
102.0916595941676
 30
0.0
  0
VERTEX
  5
485
  8
LATERAL
 10
773.4285824506487
 20
102.1567008718468
 30
0.0
  0
VERTEX
  5
486
  8
LATERAL
 10
773.2293363607307
 20
102.2130787968305
 30
0.0
  0
VERTEX
  5
487
  8
LATERAL
 10
773.0278417670595
 20
102.2605949717288
 30
0.0
  0
VERTEX
  5
488
  8
LATERAL
 10
772.8241648020987
 20
102.2990509991517
 30
0.0
  0
VERTEX
  5
489
  8
LATERAL
 10
772.6156381231608
 20
102.3286562985665
 30
0.0
  0
VERTEX
  5
48A
  8
LATERAL
 10
772.406119457273
 20
102.3486062583359
 30
0.0
  0
VERTEX
  5
48B
  8
LATERAL
 10
772.195939466752
 20
102.3587686135334
 30
0.0
  0
VERTEX
  5
48C
  8
LATERAL
 10
771.9854288139143
 20
102.3590110992322
 30
0.0
  0
VERTEX
  5
48D
  8
LATERAL
 10
771.7778982552052
 20
102.3494480694837
 30
0.0
  0
VERTEX
  5
48E
  8
LATERAL
 10
771.5717812778996
 20
102.3303867646902
 30
0.0
  0
VERTEX
  5
48F
  8
LATERAL
 10
771.367234946598
 20
102.3019842494521
 30
0.0
  0
VERTEX
  5
490
  8
LATERAL
 10
771.1644163259008
 20
102.26439758837
 30
0.0
  0
VERTEX
  5
491
  8
LATERAL
 10
770.9634824804082
 20
102.2177838460441
 30
0.0
  0
VERTEX
  5
492
  8
LATERAL
 10
770.7645904747209
 20
102.1623000870749
 30
0.0
  0
VERTEX
  5
493
  8
LATERAL
 10
770.5678973734391
 20
102.0981033760627
 30
0.0
  0
VERTEX
  5
494
  8
LATERAL
 10
770.3735602411631
 20
102.025350777608
 30
0.0
  0
VERTEX
  5
495
  8
LATERAL
 10
770.1822059585351
 20
101.9446030398894
 30
0.0
  0
VERTEX
  5
496
  8
LATERAL
 10
769.9944889613897
 20
101.8560516714985
 30
0.0
  0
VERTEX
  5
497
  8
LATERAL
 10
769.8106076471171
 20
101.7600934672153
 30
0.0
  0
VERTEX
  5
498
  8
LATERAL
 10
769.6307604131074
 20
101.6571252218197
 30
0.0
  0
VERTEX
  5
499
  8
LATERAL
 10
769.4537348308663
 20
101.5466509418369
 30
0.0
  0
VERTEX
  5
49A
  8
LATERAL
 10
769.2806110639613
 20
101.4293650181317
 30
0.0
  0
VERTEX
  5
49B
  8
LATERAL
 10
768.9479206851323
 20
101.176739008234
 30
0.0
  0
VERTEX
  5
49C
  8
LATERAL
 10
768.6346842725981
 20
100.9032922944663
 30
0.0
  0
VERTEX
  5
49D
  8
LATERAL
 10
768.340295612111
 20
100.6102042390913
 30
0.0
  0
VERTEX
  5
49E
  8
LATERAL
 10
768.0645563062815
 20
100.2995249484722
 30
0.0
  0
VERTEX
  5
49F
  8
LATERAL
 10
767.8072679577193
 20
99.97330452897198
 30
0.0
  0
VERTEX
  5
4A0
  8
LATERAL
 10
767.5687502066639
 20
99.63417725704629
 30
0.0
  0
VERTEX
  5
4A1
  8
LATERAL
 10
767.3487495453394
 20
99.28341067157565
 30
0.0
  0
VERTEX
  5
4A2
  8
LATERAL
 10
767.1461196777144
 20
98.9231210113862
 30
0.0
  0
VERTEX
  5
4A3
  8
LATERAL
 10
766.9614778401138
 20
98.55330827647819
 30
0.0
  0
VERTEX
  5
4A4
  8
LATERAL
 10
766.7929061911008
 20
98.17521796157743
 30
0.0
  0
VERTEX
  5
4A5
  8
LATERAL
 10
766.6413967176254
 20
97.78978694324772
 30
0.0
  0
VERTEX
  5
4A6
  8
LATERAL
 10
766.5065526249077
 20
97.39813947336555
 30
0.0
  0
VERTEX
  5
4A7
  8
LATERAL
 10
766.3879771181678
 20
97.00139980380743
 30
0.0
  0
VERTEX
  5
4A8
  8
LATERAL
 10
766.2862833004508
 20
96.60249154055613
 30
0.0
  0
VERTEX
  5
4A9
  8
LATERAL
 10
766.2001719444047
 20
96.19936733276792
 30
0.0
  0
VERTEX
  5
4AA
  8
LATERAL
 10
766.1295521178922
 20
95.79283730311853
 30
0.0
  0
VERTEX
  5
4AB
  8
LATERAL
 10
766.0743328887762
 20
95.38371157428367
 30
0.0
  0
VERTEX
  5
4AC
  8
LATERAL
 10
766.0344233249198
 20
94.97280026893907
 30
0.0
  0
VERTEX
  5
4AD
  8
LATERAL
 10
766.0097324941858
 20
94.56091350976044
 30
0.0
  0
VERTEX
  5
4AE
  8
LATERAL
 10
766.0001694644371
 20
94.1488614194235
 30
0.0
  0
VERTEX
  5
4AF
  8
LATERAL
 10
766.0056433035369
 20
93.73745412060393
 30
0.0
  0
VERTEX
  5
4B0
  8
LATERAL
 10
766.0265301398701
 20
93.32596691172458
 30
0.0
  0
VERTEX
  5
4B1
  8
LATERAL
 10
766.0626935752312
 20
92.91520715994179
 30
0.0
  0
VERTEX
  5
4B2
  8
LATERAL
 10
766.1140674771567
 20
92.50590232235209
 30
0.0
  0
VERTEX
  5
4B3
  8
LATERAL
 10
766.1805857131835
 20
92.09877985605206
 30
0.0
  0
VERTEX
  5
4B4
  8
LATERAL
 10
766.2628544975586
 20
91.6961654193353
 30
0.0
  0
VERTEX
  5
4B5
  8
LATERAL
 10
766.3604660134249
 20
91.29672534085809
 30
0.0
  0
VERTEX
  5
4B6
  8
LATERAL
 10
766.4745665568132
 20
90.89904879473625
 30
0.0
  0
VERTEX
  5
4B7
  8
LATERAL
 10
766.6045388913996
 20
90.50666284568031
 30
0.0
  0
VERTEX
  5
4B8
  8
LATERAL
 10
766.7519481521488
 20
90.1190604781381
 30
0.0
  0
VERTEX
  5
4B9
  8
LATERAL
 10
766.9161550585823
 20
89.73793909200168
 30
0.0
  0
VERTEX
  5
4BA
  8
LATERAL
 10
767.0975564054802
 20
89.36448907161083
 30
0.0
  0
VERTEX
  5
4BB
  8
LATERAL
 10
767.2965489876223
 20
88.99990080130542
 30
0.0
  0
VERTEX
  5
4BC
  8
LATERAL
 10
767.5129344076184
 20
88.64631256406619
 30
0.0
  0
VERTEX
  5
4BD
  8
LATERAL
 10
767.7473078576388
 20
88.30436364037203
 30
0.0
  0
VERTEX
  5
4BE
  8
LATERAL
 10
767.9996693376834
 20
87.97555303272492
 30
0.0
  0
VERTEX
  5
4BF
  8
LATERAL
 10
768.2700188477521
 20
87.66102703715575
 30
0.0
  0
VERTEX
  5
4C0
  8
LATERAL
 10
768.5595467721846
 20
87.36353015089259
 30
0.0
  0
VERTEX
  5
4C1
  8
LATERAL
 10
768.8673272564947
 20
87.08514554653006
 30
0.0
  0
VERTEX
  5
4C2
  8
LATERAL
 10
769.1933603006821
 20
86.82805559535787
 30
0.0
  0
VERTEX
  5
4C3
  8
LATERAL
 10
769.36322153273
 20
86.70817810574619
 30
0.0
  0
VERTEX
  5
4C4
  8
LATERAL
 10
769.5376459047473
 20
86.5944426686657
 30
0.0
  0
VERTEX
  5
4C5
  8
LATERAL
 10
769.7169640790503
 20
86.48723092354018
 30
0.0
  0
VERTEX
  5
4C6
  8
LATERAL
 10
769.9003163336163
 20
86.38696308706375
 30
0.0
  0
VERTEX
  5
4C7
  8
LATERAL
 10
770.087504271055
 20
86.29396982155295
 30
0.0
  0
VERTEX
  5
4C8
  8
LATERAL
 10
770.2783294939765
 20
86.20858178932441
 30
0.0
  0
VERTEX
  5
4C9
  8
LATERAL
 10
770.473199819238
 20
86.13125089554413
 30
0.0
  0
VERTEX
  5
4CA
  8
LATERAL
 10
770.671244502739
 20
86.06185589736276
 30
0.0
  0
VERTEX
  5
4CB
  8
LATERAL
 10
770.8692010096223
 20
86.00260121022444
 30
0.0
  0
VERTEX
  5
4CC
  8
LATERAL
 10
771.0698028150385
 20
85.9518114783916
 30
0.0
  0
VERTEX
  5
4CD
  8
LATERAL
 10
771.2719063784762
 20
85.9098876299231
 30
0.0
  0
VERTEX
  5
4CE
  8
LATERAL
 10
771.4749523295161
 20
85.87724712599372
 30
0.0
  0
VERTEX
  5
4CF
  8
LATERAL
 10
771.6787588038843
 20
85.8539147662772
 30
0.0
  0
VERTEX
  5
4D0
  8
LATERAL
 10
771.8831439373065
 20
85.83991535044728
 30
0.0
  0
VERTEX
  5
4D1
  8
LATERAL
 10
772.0879258655086
 20
85.83527367817771
 30
0.0
  0
VERTEX
  5
4D2
  8
LATERAL
 10
772.2929227242166
 20
85.84001454914227
 30
0.0
  0
VERTEX
  5
4D3
  8
LATERAL
 10
772.4979526491563
 20
85.85416276301467
 30
0.0
  0
VERTEX
  5
4D4
  8
LATERAL
 10
772.7028337760536
 20
85.87774311946865
 30
0.0
  0
VERTEX
  5
4D5
  8
LATERAL
 10
772.9097842979488
 20
85.911073880984
 30
0.0
  0
VERTEX
  5
4D6
  8
LATERAL
 10
773.1140895213113
 20
85.95392771721797
 30
0.0
  0
VERTEX
  5
4D7
  8
LATERAL
 10
773.3185710979092
 20
86.00621645155283
 30
0.0
  0
VERTEX
  5
4D8
  8
LATERAL
 10
773.5204073759742
 20
86.06749920089975
 30
0.0
  0
VERTEX
  5
4D9
  8
LATERAL
 10
773.717195542672
 20
86.13688317700391
 30
0.0
  0
VERTEX
  5
4DA
  8
LATERAL
 10
773.9106770862038
 20
86.2146659759502
 30
0.0
  0
VERTEX
  5
4DB
  8
LATERAL
 10
774.1007197416426
 20
86.30051693542201
 30
0.0
  0
VERTEX
  5
4DC
  8
LATERAL
 10
774.2871912440619
 20
86.39410539310272
 30
0.0
  0
VERTEX
  5
4DD
  8
LATERAL
 10
774.4692718264683
 20
86.49447518379348
 30
0.0
  0
VERTEX
  5
4DE
  8
LATERAL
 10
774.647227396475
 20
86.60173928378576
 30
0.0
  0
VERTEX
  5
4DF
  8
LATERAL
 10
774.820967021945
 20
86.71558356387878
 30
0.0
  0
VERTEX
  5
4E0
  8
LATERAL
 10
774.9903997707409
 20
86.83569389487177
 30
0.0
  0
VERTEX
  5
4E1
  8
LATERAL
 10
775.3159809097624
 20
87.09345619275442
 30
0.0
  0
VERTEX
  5
4E2
  8
LATERAL
 10
775.623243356443
 20
87.3725131438274
 30
0.0
  0
VERTEX
  5
4E3
  8
LATERAL
 10
775.7699692484047
 20
87.51923903578906
 30
0.0
  0
VERTEX
  5
4E4
  8
LATERAL
 10
775.9124626627136
 20
87.67090281834547
 30
0.0
  0
VERTEX
  5
4E5
  8
LATERAL
 10
776.0514290123117
 20
87.82538825267048
 30
0.0
  0
VERTEX
  5
4E6
  8
LATERAL
 10
776.1918061877942
 20
87.97846286111113
 30
0.0
  0
VERTEX
  5
4E7
  8
LATERAL
 10
776.488079623486
 20
88.26979840620801
 30
0.0
  0
VERTEX
  5
4E8
  8
LATERAL
 10
776.8005775568465
 20
88.54067697598323
 30
0.0
  0
VERTEX
  5
4E9
  8
LATERAL
 10
777.1321216396443
 20
88.78898233161058
 30
0.0
  0
VERTEX
  5
4EA
  8
LATERAL
 10
777.3015089223716
 20
88.9032592282345
 30
0.0
  0
VERTEX
  5
4EB
  8
LATERAL
 10
777.4756577424582
 20
89.01118740837937
 30
0.0
  0
VERTEX
  5
4EC
  8
LATERAL
 10
777.652705368854
 20
89.11171977470912
 30
0.0
  0
VERTEX
  5
4ED
  8
LATERAL
 10
777.8328612210258
 20
89.20491143760992
 30
0.0
  0
VERTEX
  5
4EE
  8
LATERAL
 10
778.0165882262172
 20
89.29082852954507
 30
0.0
  0
VERTEX
  5
4EF
  8
LATERAL
 10
778.2043493116713
 20
89.36953718297788
 30
0.0
  0
VERTEX
  5
4F0
  8
LATERAL
 10
778.3983158266008
 20
89.44159952384662
 30
0.0
  0
VERTEX
  5
4F1
  8
LATERAL
 10
778.5942663154299
 20
89.50532917433657
 30
0.0
  0
VERTEX
  5
4F2
  8
LATERAL
 10
778.7925975729388
 20
89.56059386952103
 30
0.0
  0
VERTEX
  5
4F3
  8
LATERAL
 10
778.9937063939071
 20
89.60726134447339
 30
0.0
  0
VERTEX
  5
4F4
  8
LATERAL
 10
779.1933823448369
 20
89.64373339799657
 30
0.0
  0
VERTEX
  5
4F5
  8
LATERAL
 10
779.3943809450329
 20
89.67154209882432
 30
0.0
  0
VERTEX
  5
4F6
  8
LATERAL
 10
779.5964376646423
 20
89.69048904956665
 30
0.0
  0
VERTEX
  5
4F7
  8
LATERAL
 10
779.7992879738116
 20
89.70037585283359
 30
0.0
  0
VERTEX
  5
4F8
  8
LATERAL
 10
780.0014659362705
 20
89.70064038268688
 30
0.0
  0
VERTEX
  5
4F9
  8
LATERAL
 10
780.203577766266
 20
89.69191089752812
 30
0.0
  0
VERTEX
  5
4FA
  8
LATERAL
 10
780.4052928014814
 20
89.67418739735729
 30
0.0
  0
VERTEX
  5
4FB
  8
LATERAL
 10
780.6062803796004
 20
89.64746988217438
 30
0.0
  0
VERTEX
  5
4FC
  8
LATERAL
 10
780.8074112447233
 20
89.6117583519794
 30
0.0
  0
VERTEX
  5
4FD
  8
LATERAL
 10
781.0069549307264
 20
89.56705280677238
 30
0.0
  0
VERTEX
  5
4FE
  8
LATERAL
 10
781.2068513232005
 20
89.51238330375779
 30
0.0
  0
VERTEX
  5
4FF
  8
LATERAL
 10
781.4041024171416
 20
89.44924884543776
 30
0.0
  0
VERTEX
  5
500
  8
LATERAL
 10
781.5980275992814
 20
89.37829973436831
 30
0.0
  0
VERTEX
  5
501
  8
LATERAL
 10
781.7882658965909
 20
89.29948086016327
 30
0.0
  0
VERTEX
  5
502
  8
LATERAL
 10
781.9747677097226
 20
89.21305675267598
 30
0.0
  0
VERTEX
  5
503
  8
LATERAL
 10
782.1574834393291
 20
89.11929194175974
 30
0.0
  0
VERTEX
  5
504
  8
LATERAL
 10
782.3363634860627
 20
89.01845095726782
 30
0.0
  0
VERTEX
  5
505
  8
LATERAL
 10
782.511358250576
 20
88.9107983290535
 30
0.0
  0
VERTEX
  5
506
  8
LATERAL
 10
782.8494935355519
 20
88.67611626087093
 30
0.0
  0
VERTEX
  5
507
  8
LATERAL
 10
783.169266039878
 20
88.41951128109642
 30
0.0
  0
VERTEX
  5
508
  8
LATERAL
 10
783.4713150440334
 20
88.1422068403015
 30
0.0
  0
VERTEX
  5
509
  8
LATERAL
 10
783.7553760181647
 20
87.84651757470249
 30
0.0
  0
VERTEX
  5
50A
  8
LATERAL
 10
784.0211844324184
 20
87.53475812051576
 30
0.0
  0
VERTEX
  5
50B
  8
LATERAL
 10
784.269754317899
 20
87.20883529710045
 30
0.0
  0
VERTEX
  5
50C
  8
LATERAL
 10
784.5003361733554
 20
86.87008277580027
 30
0.0
  0
VERTEX
  5
50D
  8
LATERAL
 10
784.713194528641
 20
86.51995547080836
 30
0.0
  0
VERTEX
  5
50E
  8
LATERAL
 10
784.9085939136091
 20
86.15990829631782
 30
0.0
  0
VERTEX
  5
50F
  8
LATERAL
 10
785.0865233061825
 20
85.7920464690779
 30
0.0
  0
VERTEX
  5
510
  8
LATERAL
 10
785.247985715388
 20
85.4163148787024
 30
0.0
  0
VERTEX
  5
511
  8
LATERAL
 10
785.393179538616
 20
85.03410230692113
 30
0.0
  0
VERTEX
  5
512
  8
LATERAL
 10
785.5223031732562
 20
84.64679753546395
 30
0.0
  0
VERTEX
  5
513
  8
LATERAL
 10
785.6349928907603
 20
84.2560869421455
 30
0.0
  0
VERTEX
  5
514
  8
LATERAL
 10
785.7318108170668
 20
83.86167293088091
 30
0.0
  0
VERTEX
  5
515
  8
LATERAL
 10
785.8139914248242
 20
83.46329097181689
 30
0.0
  0
VERTEX
  5
516
  8
LATERAL
 10
785.8813583607969
 20
83.0617346545133
 30
0.0
  0
VERTEX
  5
517
  8
LATERAL
 10
785.933003681374
 20
82.65928279343558
 30
0.0
  0
VERTEX
  5
518
  8
LATERAL
 10
785.9699427954195
 20
82.25449976302568
 30
0.0
  0
VERTEX
  5
519
  8
LATERAL
 10
785.9921509032595
 20
81.84816261972765
 30
0.0
  0
VERTEX
  5
51A
  8
LATERAL
 10
785.9996032052203
 20
81.44104841998558
 30
0.0
  0
VERTEX
  5
51B
  8
LATERAL
 10
785.9922749016282
 20
81.03393422024348
 30
0.0
  0
VERTEX
  5
51C
  8
LATERAL
 10
785.9701411928094
 20
80.62759707694545
 30
0.0
  0
VERTEX
  5
51D
  8
LATERAL
 10
785.9331772790902
 20
80.22281404653553
 30
0.0
  0
VERTEX
  5
51E
  8
LATERAL
 10
785.8813583607969
 20
79.82036218545778
 30
0.0
  0
VERTEX
  5
51F
  8
LATERAL
 10
785.8144212858358
 20
79.41764855004607
 30
0.0
  0
VERTEX
  5
520
  8
LATERAL
 10
785.7320753469202
 20
79.01751408070396
 30
0.0
  0
VERTEX
  5
521
  8
LATERAL
 10
785.6342544115867
 20
78.62095076438138
 30
0.0
  0
VERTEX
  5
522
  8
LATERAL
 10
785.520892347372
 20
78.22895058802814
 30
0.0
  0
VERTEX
  5
523
  8
LATERAL
 10
785.3922426620522
 20
77.8415907061848
 30
0.0
  0
VERTEX
  5
524
  8
LATERAL
 10
785.2471921258283
 20
77.460050481114
 30
0.0
  0
VERTEX
  5
525
  8
LATERAL
 10
785.0860934451708
 20
77.08600526855324
 30
0.0
  0
VERTEX
  5
526
  8
LATERAL
 10
784.9085939136091
 20
76.71936689188476
 30
0.0
  0
VERTEX
  5
527
  8
LATERAL
 10
784.7139026971025
 20
76.36057072315882
 30
0.0
  0
VERTEX
  5
528
  8
LATERAL
 10
784.5016367784674
 20
76.01073550321325
 30
0.0
  0
VERTEX
  5
529
  8
LATERAL
 10
784.2716142934298
 20
75.6716798747895
 30
0.0
  0
VERTEX
  5
52A
  8
LATERAL
 10
784.0236533777157
 20
75.345222480629
 30
0.0
  0
VERTEX
  5
52B
  8
LATERAL
 10
783.7575721670509
 20
75.03318196347314
 30
0.0
  0
VERTEX
  5
52C
  8
LATERAL
 10
783.4731887971609
 20
74.73737696606332
 30
0.0
  0
VERTEX
  5
52D
  8
LATERAL
 10
783.1703214037718
 20
74.45962613114095
 30
0.0
  0
VERTEX
  5
52E
  8
LATERAL
 10
782.8487881226097
 20
74.20174810144746
 30
0.0
  0
VERTEX
  5
52F
  8
LATERAL
 10
782.5108512350239
 20
73.9677604241298
 30
0.0
  0
VERTEX
  5
530
  8
LATERAL
 10
782.3357820714892
 20
73.86021939444737
 30
0.0
  0
VERTEX
  5
531
  8
LATERAL
 10
782.156778026387
 20
73.75936601011855
 30
0.0
  0
VERTEX
  5
532
  8
LATERAL
 10
781.9739382984119
 20
73.66548960067044
 30
0.0
  0
VERTEX
  5
533
  8
LATERAL
 10
781.7873620862589
 20
73.57887949563006
 30
0.0
  0
VERTEX
  5
534
  8
LATERAL
 10
781.5971485886232
 20
73.49982502452444
 30
0.0
  0
VERTEX
  5
535
  8
LATERAL
 10
781.4033970041996
 20
73.42861551688064
 30
0.0
  0
VERTEX
  5
536
  8
LATERAL
 10
781.2075236699109
 20
73.36610931696218
 30
0.0
  0
VERTEX
  5
537
  8
LATERAL
 10
781.0093356994059
 20
73.31213420481254
 30
0.0
  0
VERTEX
  5
538
  8
LATERAL
 10
780.808899225148
 20
73.26702084274831
 30
0.0
  0
VERTEX
  5
539
  8
LATERAL
 10
780.6062803796004
 20
73.23109989308614
 30
0.0
  0
VERTEX
  5
53A
  8
LATERAL
 10
780.3997707407939
 20
73.20341243510782
 30
0.0
  0
VERTEX
  5
53B
  8
LATERAL
 10
780.1922029825741
 20
73.18524805184815
 30
0.0
  0
VERTEX
  5
53C
  8
LATERAL
 10
779.9830480452347
 20
73.17731215624929
 30
0.0
  0
VERTEX
  5
53D
  8
LATERAL
 10
779.7738931078952
 20
73.17889933536905
 30
0.0
  0
VERTEX
  5
53E
  8
LATERAL
 10
779.5682762573435
 20
73.18995034554243
 30
0.0
  0
VERTEX
  5
53F
  8
LATERAL
 10
779.3641804534483
 20
73.21030123337074
 30
0.0
  0
VERTEX
  5
540
  8
LATERAL
 10
779.1617379611362
 20
73.23979493425361
 30
0.0
  0
VERTEX
  5
541
  8
LATERAL
 10
778.9610810453339
 20
73.27827438359063
 30
0.0
  0
VERTEX
  5
542
  8
LATERAL
 10
778.762341970968
 20
73.32558251678141
 30
0.0
  0
VERTEX
  5
543
  8
LATERAL
 10
778.5656530029651
 20
73.38156226922555
 30
0.0
  0
VERTEX
  5
544
  8
LATERAL
 10
778.3711464062518
 20
73.44605657632266
 30
0.0
  0
VERTEX
  5
545
  8
LATERAL
 10
778.1789544457549
 20
73.51890837347236
 30
0.0
  0
VERTEX
  5
546
  8
LATERAL
 10
777.9902234175054
 20
73.59984348650377
 30
0.0
  0
VERTEX
  5
547
  8
LATERAL
 10
777.804997409812
 20
73.68811930296414
 30
0.0
  0
VERTEX
  5
548
  8
LATERAL
 10
777.6233425551382
 20
73.78366969039014
 30
0.0
  0
VERTEX
  5
549
  8
LATERAL
 10
777.445324985947
 20
73.88642851631846
 30
0.0
  0
VERTEX
  5
54A
  8
LATERAL
 10
777.0989672313646
 20
74.11216065779787
 30
0.0
  0
VERTEX
  5
54B
  8
LATERAL
 10
776.7723610391616
 20
74.35976060048309
 30
0.0
  0
VERTEX
  5
54C
  8
LATERAL
 10
776.4656827625735
 20
74.62817022496088
 30
0.0
  0
VERTEX
  5
54D
  8
LATERAL
 10
776.1769925160097
 20
74.91562599887604
 30
0.0
  0
VERTEX
  5
54E
  8
LATERAL
 10
776.0373207534693
 20
75.0672897814325
 30
0.0
  0
VERTEX
  5
54F
  8
LATERAL
 10
776.0034609322473
 20
75.10608749324926
 30
0.0
  0
VERTEX
  5
550
  8
LATERAL
 10
775.9688956980833
 20
75.14488520506606
 30
0.0
  0
VERTEX
  5
551
  8
LATERAL
 10
775.8990598168131
 20
75.22106980281534
 30
0.0
  0
VERTEX
  5
552
  8
LATERAL
 10
775.611251336427
 20
75.51734323850702
 30
0.0
  0
VERTEX
  5
553
  8
LATERAL
 10
775.4602929668127
 20
75.65842582693165
 30
0.0
  0
VERTEX
  5
554
  8
LATERAL
 10
775.3043967066035
 20
75.79457052476141
 30
0.0
  0
VERTEX
  5
555
  8
LATERAL
 10
775.1445324985948
 20
75.92516009567194
 30
0.0
  0
VERTEX
  5
556
  8
LATERAL
 10
774.9799067532267
 20
76.04993000980998
 30
0.0
  0
VERTEX
  5
557
  8
LATERAL
 10
774.8109603535884
 20
76.16949750349985
 30
0.0
  0
VERTEX
  5
558
  8
LATERAL
 10
774.637781476297
 20
76.28271628071056
 30
0.0
  0
VERTEX
  5
559
  8
LATERAL
 10
774.4614282407663
 20
76.38879275188233
 30
0.0
  0
VERTEX
  5
55A
  8
LATERAL
 10
774.2808425275829
 20
76.48799144686842
 30
0.0
  0
VERTEX
  5
55B
  8
LATERAL
 10
774.0977465363123
 20
76.57928317920829
 30
0.0
  0
VERTEX
  5
55C
  8
LATERAL
 10
773.9114927199181
 20
76.66307714351879
 30
0.0
  0
VERTEX
  5
55D
  8
LATERAL
 10
773.7222298764426
 20
76.73915014273624
 30
0.0
  0
VERTEX
  5
55E
  8
LATERAL
 10
773.5301068039284
 20
76.80727897979686
 30
0.0
  0
VERTEX
  5
55F
  8
LATERAL
 10
773.3352723004178
 20
76.86724045763698
 30
0.0
  0
VERTEX
  5
560
  8
LATERAL
 10
773.1378751639534
 20
76.91881137919285
 30
0.0
  0
VERTEX
  5
561
  8
LATERAL
 10
772.9380641925777
 20
76.96176854740077
 30
0.0
  0
VERTEX
  5
562
  8
LATERAL
 10
772.7359881843332
 20
76.99588876519701
 30
0.0
  0
VERTEX
  5
563
  8
LATERAL
 10
772.5309775480287
 20
77.02110727787792
 30
0.0
  0
VERTEX
  5
564
  8
LATERAL
 10
772.3254378520174
 20
77.0368027158402
 30
0.0
  0
VERTEX
  5
565
  8
LATERAL
 10
772.1169001510025
 20
77.04297507908373
 30
0.0
  0
VERTEX
  5
566
  8
LATERAL
 10
771.9078333902808
 20
77.03962436760862
 30
0.0
  0
VERTEX
  5
567
  8
LATERAL
 10
771.7008718463082
 20
77.02641991909826
 30
0.0
  0
VERTEX
  5
568
  8
LATERAL
 10
771.4949022892855
 20
77.00382466079589
 30
0.0
  0
VERTEX
  5
569
  8
LATERAL
 10
771.2901231166027
 20
76.97197085762816
 30
0.0
  0
VERTEX
  5
56A
  8
LATERAL
 10
771.0867327256495
 20
76.93099077452172
 30
0.0
  0
VERTEX
  5
56B
  8
LATERAL
 10
770.8870981075094
 20
76.88113791925261
 30
0.0
  0
VERTEX
  5
56C
  8
LATERAL
 10
770.6903567846397
 20
76.8227539762147
 30
0.0
  0
VERTEX
  5
56D
  8
LATERAL
 10
770.4966244888512
 20
76.75610347526128
 30
0.0
  0
VERTEX
  5
56E
  8
LATERAL
 10
770.3060169519548
 20
76.68145094624566
 30
0.0
  0
VERTEX
  5
56F
  8
LATERAL
 10
770.1186499057612
 20
76.59906091902113
 30
0.0
  0
VERTEX
  5
570
  8
LATERAL
 10
769.9346390820815
 20
76.50919792344098
 30
0.0
  0
VERTEX
  5
571
  8
LATERAL
 10
769.7541002127261
 20
76.41212648935851
 30
0.0
  0
VERTEX
  5
572
  8
LATERAL
 10
769.5771490295061
 20
76.30811114662704
 30
0.0
  0
VERTEX
  5
573
  8
LATERAL
 10
769.4032647392728
 20
76.19639137191828
 30
0.0
  0
VERTEX
  5
574
  8
LATERAL
 10
769.2336129266922
 20
76.07885194043702
 30
0.0
  0
VERTEX
  5
575
  8
LATERAL
 10
768.906301321547
 20
75.82560869421481
 30
0.0
  0
VERTEX
  5
576
  8
LATERAL
 10
768.5978595126037
 20
75.55129123634671
 30
0.0
  0
VERTEX
  5
577
  8
LATERAL
 10
768.3074057336846
 20
75.2584566887479
 30
0.0
  0
VERTEX
  5
578
  8
LATERAL
 10
768.036218545747
 20
74.94914413570413
 30
0.0
  0
VERTEX
  5
579
  8
LATERAL
 10
767.7832839176872
 20
74.62455498363252
 30
0.0
  0
VERTEX
  5
57A
  8
LATERAL
 10
767.5483373196512
 20
74.28660707396946
 30
0.0
  0
VERTEX
  5
57B
  8
LATERAL
 10
767.3311142217863
 20
73.93721824815135
 30
0.0
  0
VERTEX
  5
57C
  8
LATERAL
 10
767.1321877721075
 20
73.5794857098772
 30
0.0
  0
VERTEX
  5
57D
  8
LATERAL
 10
766.9501912330397
 20
73.21275915659095
 30
0.0
  0
VERTEX
  5
57E
  8
LATERAL
 10
766.7846837214942
 20
72.8384494141769
 30
0.0
  0
VERTEX
  5
57F
  8
LATERAL
 10
766.6355770608529
 20
72.45726189557719
 30
0.0
  0
VERTEX
  5
580
  8
LATERAL
 10
766.5027830744983
 20
72.06920762286893
 30
0.0
  0
VERTEX
  5
581
  8
LATERAL
 10
766.3858608793413
 20
71.67592888555806
 30
0.0
  0
VERTEX
  5
582
  8
LATERAL
 10
766.2848104753822
 20
71.27828540566784
 30
0.0
  0
VERTEX
  5
583
  8
LATERAL
 10
766.1996318626208
 20
70.87713690522146
 30
0.0
  0
VERTEX
  5
584
  8
LATERAL
 10
766.129509407343
 20
70.47517277106074
 30
0.0
  0
VERTEX
  5
585
  8
LATERAL
 10
766.0745974186295
 20
70.07076173575703
 30
0.0
  0
VERTEX
  5
586
  8
LATERAL
 10
766.0347636315539
 20
69.66463125640686
 30
0.0
  0
VERTEX
  5
587
  8
LATERAL
 10
766.0098757811896
 20
69.25750879010685
 30
0.0
  0
VERTEX
  5
588
  8
LATERAL
 10
766.000067510223
 20
68.8497952649159
 30
0.0
  0
VERTEX
  5
589
  8
LATERAL
 10
766.0050811775986
 20
68.44137908230212
 30
0.0
  0
VERTEX
  5
58A
  8
LATERAL
 10
766.0249911823382
 20
68.03301249903585
 30
0.0
  0
VERTEX
  5
58B
  8
LATERAL
 10
766.0598719234628
 20
67.62544777188737
 30
0.0
  0
VERTEX
  5
58C
  8
LATERAL
 10
766.1097977999934
 20
67.219437157627
 30
0.0
  0
VERTEX
  5
58D
  8
LATERAL
 10
766.1748432109516
 20
66.81573291302506
 30
0.0
  0
VERTEX
  5
58E
  8
LATERAL
 10
766.2550825553585
 20
66.41508729485186
 30
0.0
  0
VERTEX
  5
58F
  8
LATERAL
 10
766.3505902322353
 20
66.0182525598777
 30
0.0
  0
VERTEX
  5
590
  8
LATERAL
 10
766.4617258368513
 20
65.62442271870584
 30
0.0
  0
VERTEX
  5
591
  8
LATERAL
 10
766.588931630055
 20
65.23515601750333
 30
0.0
  0
VERTEX
  5
592
  8
LATERAL
 10
766.7324060092365
 20
64.85157670814668
 30
0.0
  0
VERTEX
  5
593
  8
LATERAL
 10
766.8923473717856
 20
64.47480904251242
 30
0.0
  0
VERTEX
  5
594
  8
LATERAL
 10
767.0695162410308
 20
64.1034973051024
 30
0.0
  0
VERTEX
  5
595
  8
LATERAL
 10
767.2637472858135
 20
63.74065052299783
 30
0.0
  0
VERTEX
  5
596
  8
LATERAL
 10
767.4754373009138
 20
63.38759134546522
 30
0.0
  0
VERTEX
  5
597
  8
LATERAL
 10
767.7049830811114
 20
63.04564242177109
 30
0.0
  0
VERTEX
  5
598
  8
LATERAL
 10
767.9521752069395
 20
62.71746007252554
 30
0.0
  0
VERTEX
  5
599
  8
LATERAL
 10
768.2175537601818
 20
62.40309940811471
 30
0.0
  0
VERTEX
  5
59A
  8
LATERAL
 10
768.5010526083747
 20
62.10474279982832
 30
0.0
  0
VERTEX
  5
59B
  8
LATERAL
 10
768.802605619055
 20
61.82457261895604
 30
0.0
  0
VERTEX
  5
59C
  8
LATERAL
 10
769.1222458584546
 20
61.56463897186091
 30
0.0
  0
VERTEX
  5
59D
  8
LATERAL
 10
769.458816008465
 20
61.32805008431915
 30
0.0
  0
VERTEX
  5
59E
  8
LATERAL
 10
769.6333671343702
 20
61.21919191640882
 30
0.0
  0
VERTEX
  5
59F
  8
LATERAL
 10
769.8120515392332
 20
61.11698832762048
 30
0.0
  0
VERTEX
  5
5A0
  8
LATERAL
 10
769.9948361568221
 20
61.02171211436532
 30
0.0
  0
VERTEX
  5
5A1
  8
LATERAL
 10
770.1816879209056
 20
60.93363607305459
 30
0.0
  0
VERTEX
  5
5A2
  8
LATERAL
 10
770.3736484177808
 20
60.85251358471044
 30
0.0
  0
VERTEX
  5
5A3
  8
LATERAL
 10
770.568254213189
 20
60.77985605167176
 30
0.0
  0
VERTEX
  5
5A4
  8
LATERAL
 10
770.7662107200723
 20
60.71539894408527
 30
0.0
  0
VERTEX
  5
5A5
  8
LATERAL
 10
770.9668125254885
 20
60.65993585151082
 30
0.0
  0
VERTEX
  5
5A6
  8
LATERAL
 10
771.1661027037155
 20
60.61365414926124
 30
0.0
  0
VERTEX
  5
5A7
  8
LATERAL
 10
771.3670461935255
 20
60.57643259448703
 30
0.0
  0
VERTEX
  5
5A8
  8
LATERAL
 10
771.5694445975289
 20
60.54833731965152
 30
0.0
  0
VERTEX
  5
5A9
  8
LATERAL
 10
771.7730995183352
 20
60.52943445721804
 30
0.0
  0
VERTEX
  5
5AA
  8
LATERAL
 10
771.9779158905288
 20
60.51983285019919
 30
0.0
  0
VERTEX
  5
5AB
  8
LATERAL
 10
772.1822280026895
 20
60.51954765395111
 30
0.0
  0
VERTEX
  5
5AC
  8
LATERAL
 10
772.385862257101
 20
60.52850446945257
 30
0.0
  0
VERTEX
  5
5AD
  8
LATERAL
 10
772.5886450560473
 20
60.54662889768232
 30
0.0
  0
VERTEX
  5
5AE
  8
LATERAL
 10
772.790402801812
 20
60.57384653961912
 30
0.0
  0
VERTEX
  5
5AF
  8
LATERAL
 10
772.990961896679
 20
60.61008299624173
 30
0.0
  0
VERTEX
  5
5B0
  8
LATERAL
 10
773.1901487429321
 20
60.65526386852891
 30
0.0
  0
VERTEX
  5
5B1
  8
LATERAL
 10
773.3877897428549
 20
60.70931475745942
 30
0.0
  0
VERTEX
  5
5B2
  8
LATERAL
 10
773.5859226029738
 20
60.77306645210382
 30
0.0
  0
VERTEX
  5
5B3
  8
LATERAL
 10
773.7814101645597
 20
60.84475404234706
 30
0.0
  0
VERTEX
  5
5B4
  8
LATERAL
 10
773.9702844798132
 20
60.92331940877604
 30
0.0
  0
VERTEX
  5
5B5
  8
LATERAL
 10
774.155984436827
 20
61.00982067080385
 30
0.0
  0
VERTEX
  5
5B6
  8
LATERAL
 10
774.3382014174392
 20
61.10360752587457
 30
0.0
  0
VERTEX
  5
5B7
  8
LATERAL
 10
774.5159213905453
 20
61.20407375974101
 30
0.0
  0
VERTEX
  5
5B8
  8
LATERAL
 10
774.6896734158519
 20
61.3112855048665
 30
0.0
  0
VERTEX
  5
5B9
  8
LATERAL
 10
774.8599865530658
 20
61.42530889371436
 30
0.0
  0
VERTEX
  5
5BA
  8
LATERAL
 10
775.1929414617481
 20
61.67502507522595
 30
0.0
  0
VERTEX
  5
5BB
  8
LATERAL
 10
775.5075556339348
 20
61.94590364500117
 30
0.0
  0
VERTEX
  5
5BC
  8
LATERAL
 10
775.6585140035492
 20
62.08980788519428
 30
0.0
  0
VERTEX
  5
5BD
  8
LATERAL
 10
775.8045344825687
 20
62.23865001598224
 30
0.0
  0
VERTEX
  5
5BE
  8
LATERAL
 10
775.9463224839354
 20
62.39243003736507
 30
0.0
  0
VERTEX
  5
5BF
  8
LATERAL
 10
776.0852888335337
 20
62.54691547169003
 30
0.0
  0
VERTEX
  5
5C0
  8
LATERAL
 10
776.2284876607846
 20
62.69928466718862
 30
0.0
  0
VERTEX
  5
5C1
  8
LATERAL
 10
776.3759189656884
 20
62.84671597209234
 30
0.0
  0
VERTEX
  5
5C2
  8
LATERAL
 10
776.6848898343384
 20
63.12747032305734
 30
0.0
  0
VERTEX
  5
5C3
  8
LATERAL
 10
777.0122014394833
 20
63.38626869619873
 30
0.0
  0
VERTEX
  5
5C4
  8
LATERAL
 10
777.1822720909984
 20
63.506905331379
 30
0.0
  0
VERTEX
  5
5C5
  8
LATERAL
 10
777.3564429552395
 20
63.62125938254347
 30
0.0
  0
VERTEX
  5
5C6
  8
LATERAL
 10
777.5356398866933
 20
63.72888996660334
 30
0.0
  0
VERTEX
  5
5C7
  8
LATERAL
 10
777.7186725010197
 20
63.82944437708755
 30
0.0
  0
VERTEX
  5
5C8
  8
LATERAL
 10
777.9054085332923
 20
63.92272421660611
 30
0.0
  0
VERTEX
  5
5C9
  8
LATERAL
 10
778.0957157185844
 20
64.00853108776907
 30
0.0
  0
VERTEX
  5
5CA
  8
LATERAL
 10
778.291291456788
 20
64.08621468802035
 30
0.0
  0
VERTEX
  5
5CB
  8
LATERAL
 10
778.4900415532312
 20
64.15596239267279
 30
0.0
  0
VERTEX
  5
5CC
  8
LATERAL
 10
778.6924950676206
 20
64.21662790569535
 30
0.0
  0
VERTEX
  5
5CD
  8
LATERAL
 10
778.8977702337784
 20
64.2688284634125
 30
0.0
  0
VERTEX
  5
5CE
  8
LATERAL
 10
779.1012295127141
 20
64.31092039855858
 30
0.0
  0
VERTEX
  5
5CF
  8
LATERAL
 10
779.3056973117154
 20
64.34354712489142
 30
0.0
  0
VERTEX
  5
5D0
  8
LATERAL
 10
779.5109917665084
 20
64.36670037585309
 30
0.0
  0
VERTEX
  5
5D1
  8
LATERAL
 10
779.7169310128188
 20
64.38037188488568
 30
0.0
  0
VERTEX
  5
5D2
  8
LATERAL
 10
779.9233331863724
 20
64.38455338543127
 30
0.0
  0
VERTEX
  5
5D3
  8
LATERAL
 10
780.1300164228952
 20
64.37923661093194
 30
0.0
  0
VERTEX
  5
5D4
  8
LATERAL
 10
780.3367988581131
 20
64.36441329482979
 30
0.0
  0
VERTEX
  5
5D5
  8
LATERAL
 10
780.5434986277515
 20
64.3400751705669
 30
0.0
  0
VERTEX
  5
5D6
  8
LATERAL
 10
780.7479471381179
 20
64.30636965842609
 30
0.0
  0
VERTEX
  5
5D7
  8
LATERAL
 10
780.9506100719743
 20
64.26353786634655
 30
0.0
  0
VERTEX
  5
5D8
  8
LATERAL
 10
781.1512890319311
 20
64.21171205925494
 30
0.0
  0
VERTEX
  5
5D9
  8
LATERAL
 10
781.3497856205983
 20
64.15102450207793
 30
0.0
  0
VERTEX
  5
5DA
  8
LATERAL
 10
781.5480066573349
 20
64.0804832078656
 30
0.0
  0
VERTEX
  5
5DB
  8
LATERAL
 10
781.7434060423028
 20
64.00147695834784
 30
0.0
  0
VERTEX
  5
5DC
  8
LATERAL
 10
781.9353665391782
 20
63.91488751970223
 30
0.0
  0
VERTEX
  5
5DD
  8
LATERAL
 10
782.1236236181073
 20
63.82089124516429
 30
0.0
  0
VERTEX
  5
5DE
  8
LATERAL
 10
782.3066080108459
 20
63.71928973734414
 30
0.0
  0
VERTEX
  5
5DF
  8
LATERAL
 10
782.4852028613315
 20
63.61094271826494
 30
0.0
  0
VERTEX
  5
5E0
  8
LATERAL
 10
782.6593833698901
 20
63.49611471777997
 30
0.0
  0
VERTEX
  5
5E1
  8
LATERAL
 10
782.829124736848
 20
63.37507026574254
 30
0.0
  0
VERTEX
  5
5E2
  8
LATERAL
 10
783.1551908472672
 20
63.11539012642349
 30
0.0
  0
VERTEX
  5
5E3
  8
LATERAL
 10
783.463202795199
 20
62.83401853913414
 30
0.0
  0
VERTEX
  5
5E4
  8
LATERAL
 10
783.7520253066896
 20
62.53386533226077
 30
0.0
  0
VERTEX
  5
5E5
  8
LATERAL
 10
784.0225952583025
 20
62.21678221477644
 30
0.0
  0
VERTEX
  5
5E6
  8
LATERAL
 10
784.274648120185
 20
61.88488542550753
 30
0.0
  0
VERTEX
  5
5E7
  8
LATERAL
 10
784.5079193624832
 20
61.54029120328043
 30
0.0
  0
VERTEX
  5
5E8
  8
LATERAL
 10
784.7237977669273
 20
61.18381518180939
 30
0.0
  0
VERTEX
  5
5E9
  8
LATERAL
 10
784.9218204062739
 20
60.81689023113319
 30
0.0
  0
VERTEX
  5
5EA
  8
LATERAL
 10
785.1021195454497
 20
60.44097126544492
 30
0.0
  0
VERTEX
  5
5EB
  8
LATERAL
 10
785.2648274493813
 20
60.05751319893771
 30
0.0
  0
VERTEX
  5
5EC
  8
LATERAL
 10
785.4100653609181
 20
59.66938177168892
 30
0.0
  0
VERTEX
  5
5ED
  8
LATERAL
 10
785.5389685540138
 20
59.27503389288768
 30
0.0
  0
VERTEX
  5
5EE
  8
LATERAL
 10
785.6516031611319
 20
58.87565994687382
 30
0.0
  0
VERTEX
  5
5EF
  8
LATERAL
 10
785.7480353147356
 20
58.47245031798718
 30
0.0
  0
VERTEX
  5
5F0
  8
LATERAL
 10
785.8285915438626
 20
58.06626886152988
 30
0.0
  0
VERTEX
  5
5F1
  8
LATERAL
 10
785.8935818444345
 20
57.65667331665348
 30
0.0
  0
VERTEX
  5
5F2
  8
LATERAL
 10
785.9430475492413
 20
57.24448207259162
 30
0.0
  0
VERTEX
  5
5F3
  8
LATERAL
 10
785.9770299910723
 20
56.83051351857792
 30
0.0
  0
VERTEX
  5
5F4
  8
LATERAL
 10
785.9955705027171
 20
56.41558604384603
 30
0.0
  0
VERTEX
  5
5F5
  8
LATERAL
 10
785.9987104169654
 20
56.00051803762959
 30
0.0
  0
VERTEX
  5
5F6
  8
LATERAL
 10
785.9864910666066
 20
55.58612788916221
 30
0.0
  0
VERTEX
  5
5F7
  8
LATERAL
 10
785.9589537844304
 20
55.17323398767753
 30
0.0
  0
VERTEX
  5
5F8
  8
LATERAL
 10
785.916629007903
 20
54.76197824241977
 30
0.0
  0
VERTEX
  5
5F9
  8
LATERAL
 10
785.8580797337069
 20
54.3521333230463
 30
0.0
  0
VERTEX
  5
5FA
  8
LATERAL
 10
785.7838350215484
 20
53.94281746337937
 30
0.0
  0
VERTEX
  5
5FB
  8
LATERAL
 10
785.6937185181921
 20
53.53667596195199
 30
0.0
  0
VERTEX
  5
5FC
  8
LATERAL
 10
785.5872121860087
 20
53.13373086291863
 30
0.0
  0
VERTEX
  5
5FD
  8
LATERAL
 10
785.4643711353843
 20
52.73515050646465
 30
0.0
  0
VERTEX
  5
5FE
  8
LATERAL
 10
785.3249969689289
 20
52.34212527692989
 30
0.0
  0
VERTEX
  5
5FF
  8
LATERAL
 10
785.1688912892525
 20
51.95584555865419
 30
0.0
  0
VERTEX
  5
600
  8
LATERAL
 10
784.9968380415974
 20
51.57935482271009
 30
0.0
  0
VERTEX
  5
601
  8
LATERAL
 10
784.8065405006228
 20
51.20935333472966
 30
0.0
  0
VERTEX
  5
602
  8
LATERAL
 10
784.5979408004233
 20
50.84783333517053
 30
0.0
  0
VERTEX
  5
603
  8
LATERAL
 10
784.3709810750936
 20
50.49678706449036
 30
0.0
  0
VERTEX
  5
604
  8
LATERAL
 10
784.1256034587279
 20
50.15820676314678
 30
0.0
  0
VERTEX
  5
605
  8
LATERAL
 10
783.8617500854212
 20
49.8340846715974
 30
0.0
  0
VERTEX
  5
606
  8
LATERAL
 10
783.579363089268
 20
49.52641303029987
 30
0.0
  0
VERTEX
  5
607
  8
LATERAL
 10
783.2783846043627
 20
49.23718407971184
 30
0.0
  0
VERTEX
  5
608
  8
LATERAL
 10
782.9568926559901
 20
48.96736362934978
 30
0.0
  0
VERTEX
  5
609
  8
LATERAL
 10
782.7893350380814
 20
48.84098449193755
 30
0.0
  0
VERTEX
  5
60A
  8
LATERAL
 10
782.6174126775933
 20
48.72082180607778
 30
0.0
  0
VERTEX
  5
60B
  8
LATERAL
 10
782.4421175614757
 20
48.60707396916042
 30
0.0
  0
VERTEX
  5
60C
  8
LATERAL
 10
782.2625899677055
 20
48.50073296813534
 30
0.0
  0
VERTEX
  5
60D
  8
LATERAL
 10
782.0835914336418
 20
48.40347415874013
 30
0.0
  0
VERTEX
  5
60E
  8
LATERAL
 10
781.9014185413386
 20
48.31309312553061
 30
0.0
  0
VERTEX
  5
60F
  8
LATERAL
 10
781.7237343899833
 20
48.23382510167885
 30
0.0
  0
VERTEX
  5
610
  8
LATERAL
 10
781.543619870601
 20
48.1617159169819
 30
0.0
  0
VERTEX
  5
611
  8
LATERAL
 10
781.3611576487707
 20
48.09691436948225
 30
0.0
  0
VERTEX
  5
612
  8
LATERAL
 10
781.1764303900715
 20
48.03956925722239
 30
0.0
  0
VERTEX
  5
613
  8
LATERAL
 10
780.9895207600825
 20
47.98982937824479
 30
0.0
  0
VERTEX
  5
614
  8
LATERAL
 10
780.8005114243832
 20
47.94784353059194
 30
0.0
  0
VERTEX
  5
615
  8
LATERAL
 10
780.6094850485524
 20
47.91376051230632
 30
0.0
  0
VERTEX
  5
616
  8
LATERAL
 10
780.4165242981694
 20
47.8877291214304
 30
0.0
  0
VERTEX
  5
617
  8
LATERAL
 10
780.2284311726389
 20
47.87076201130883
 30
0.0
  0
VERTEX
  5
618
  8
LATERAL
 10
780.0403959130139
 20
47.86163986464907
 30
0.0
  0
VERTEX
  5
619
  8
LATERAL
 10
779.8525425176629
 20
47.86033788177738
 30
0.0
  0
VERTEX
  5
61A
  8
LATERAL
 10
779.664994984955
 20
47.86683126302001
 30
0.0
  0
VERTEX
  5
61B
  8
LATERAL
 10
779.4778773132585
 20
47.88109520870321
 30
0.0
  0
VERTEX
  5
61C
  8
LATERAL
 10
779.2913135009426
 20
47.90310491915325
 30
0.0
  0
VERTEX
  5
61D
  8
LATERAL
 10
779.1054275463756
 20
47.93283559469636
 30
0.0
  0
VERTEX
  5
61E
  8
LATERAL
 10
778.9203434479264
 20
47.97026243565881
 30
0.0
  0
VERTEX
  5
61F
  8
LATERAL
 10
778.7308877180994
 20
48.01701670946926
 30
0.0
  0
VERTEX
  5
620
  8
LATERAL
 10
778.5440276874581
 20
48.07143408246738
 30
0.0
  0
VERTEX
  5
621
  8
LATERAL
 10
778.3598460215812
 20
48.13330789070528
 30
0.0
  0
VERTEX
  5
622
  8
LATERAL
 10
778.1784253860484
 20
48.20243147023508
 30
0.0
  0
VERTEX
  5
623
  8
LATERAL
 10
777.8241978683304
 20
48.3616012873788
 30
0.0
  0
VERTEX
  5
624
  8
LATERAL
 10
777.4820064589373
 20
48.54729022231545
 30
0.0
  0
VERTEX
  5
625
  8
LATERAL
 10
777.3069979168275
 20
48.65529555700083
 30
0.0
  0
VERTEX
  5
626
  8
LATERAL
 10
777.1363541172971
 20
48.76958347570199
 30
0.0
  0
VERTEX
  5
627
  8
LATERAL
 10
776.8076316862678
 20
49.01568441588522
 30
0.0
  0
VERTEX
  5
628
  8
LATERAL
 10
776.492223924521
 20
49.28779745830918
 30
0.0
  0
VERTEX
  5
629
  8
LATERAL
 10
776.195333252505
 20
49.58001476958364
 30
0.0
  0
VERTEX
  5
62A
  8
LATERAL
 10
776.052839838196
 20
49.73308937802435
 30
0.0
  0
VERTEX
  5
62B
  8
LATERAL
 10
776.018274604032
 20
49.7718870898411
 30
0.0
  0
VERTEX
  5
62C
  8
LATERAL
 10
775.9837093698679
 20
49.81068480165791
 30
0.0
  0
VERTEX
  5
62D
  8
LATERAL
 10
775.9138734885978
 20
49.88828022529142
 30
0.0
  0
VERTEX
  5
62E
  8
LATERAL
 10
775.7713800742889
 20
50.04135483373213
 30
0.0
  0
VERTEX
  5
62F
  8
LATERAL
 10
775.6239487693852
 20
50.18808072569374
 30
0.0
  0
VERTEX
  5
630
  8
LATERAL
 10
775.3200921445657
 20
50.46495530547707
 30
0.0
  0
VERTEX
  5
631
  8
LATERAL
 10
774.9982474897221
 20
50.72066749699663
 30
0.0
  0
VERTEX
  5
632
  8
LATERAL
 10
774.6575330386764
 20
50.95345376789727
 30
0.0
  0
VERTEX
  5
633
  8
LATERAL
 10
774.4790635643193
 20
51.06138194804213
 30
0.0
  0
VERTEX
  5
634
  8
LATERAL
 10
774.2963616123096
 20
51.16296141170787
 30
0.0
  0
VERTEX
  5
635
  8
LATERAL
 10
774.1119071500216
 20
51.25563503697926
 30
0.0
  0
VERTEX
  5
636
  8
LATERAL
 10
773.9238154022507
 20
51.34090182635838
 30
0.0
  0
VERTEX
  5
637
  8
LATERAL
 10
773.7324170313137
 20
51.41849724999192
 30
0.0
  0
VERTEX
  5
638
  8
LATERAL
 10
773.5380426995272
 20
51.48815677802659
 30
0.0
  0
VERTEX
  5
639
  8
LATERAL
 10
773.34029974539
 20
51.54934583971716
 30
0.0
  0
VERTEX
  5
63A
  8
LATERAL
 10
773.1407960144168
 20
51.60164008509064
 30
0.0
  0
VERTEX
  5
63B
  8
LATERAL
 10
772.9396885712081
 20
51.64494031545206
 30
0.0
  0
VERTEX
  5
63C
  8
LATERAL
 10
772.7371344803641
 20
51.67914733210642
 30
0.0
  0
VERTEX
  5
63D
  8
LATERAL
 10
772.5332908064853
 20
51.70416193635874
 30
0.0
  0
VERTEX
  5
63E
  8
LATERAL
 10
772.3283146141721
 20
51.71988492951404
 30
0.0
  0
VERTEX
  5
63F
  8
LATERAL
 10
772.122362968025
 20
51.72621711287732
 30
0.0
  0
VERTEX
  5
640
  8
LATERAL
 10
771.9155929326441
 20
51.7230592877536
 30
0.0
  0
VERTEX
  5
641
  8
LATERAL
 10
771.7049389928026
 20
51.70983279508879
 30
0.0
  0
VERTEX
  5
642
  8
LATERAL
 10
771.4958722320808
 20
51.68708322770529
 30
0.0
  0
VERTEX
  5
643
  8
LATERAL
 10
771.288392650479
 20
51.65481058560317
 30
0.0
  0
VERTEX
  5
644
  8
LATERAL
 10
771.0825002479968
 20
51.61301486878239
 30
0.0
  0
VERTEX
  5
645
  8
LATERAL
 10
770.8812040517156
 20
51.56253375511169
 30
0.0
  0
VERTEX
  5
646
  8
LATERAL
 10
770.6826192864307
 20
51.50332315628224
 30
0.0
  0
VERTEX
  5
647
  8
LATERAL
 10
770.4868120846055
 20
51.43564760214731
 30
0.0
  0
VERTEX
  5
648
  8
LATERAL
 10
770.2938485787031
 20
51.35977162256019
 30
0.0
  0
VERTEX
  5
649
  8
LATERAL
 10
770.1045995128242
 20
51.27566215128923
 30
0.0
  0
VERTEX
  5
64A
  8
LATERAL
 10
769.9189215999647
 20
51.18421197658931
 30
0.0
  0
VERTEX
  5
64B
  8
LATERAL
 10
769.7369471050515
 20
51.08548723092376
 30
0.0
  0
VERTEX
  5
64C
  8
LATERAL
 10
769.5588082930109
 20
50.97955404675588
 30
0.0
  0
VERTEX
  5
64D
  8
LATERAL
 10
769.3842296119126
 20
50.86678717471116
 30
0.0
  0
VERTEX
  5
64E
  8
LATERAL
 10
769.2139495409303
 20
50.74773771865066
 30
0.0
  0
VERTEX
  5
64F
  8
LATERAL
 10
768.8865497591676
 20
50.49211370374884
 30
0.0
  0
VERTEX
  5
650
  8
LATERAL
 10
768.5765538373362
 20
50.21399225147994
 30
0.0
  0
VERTEX
  5
651
  8
LATERAL
 10
768.2855379324787
 20
49.91727931045907
 30
0.0
  0
VERTEX
  5
652
  8
LATERAL
 10
768.0133036472055
 20
49.60375219063806
 30
0.0
  0
VERTEX
  5
653
  8
LATERAL
 10
767.7596525841261
 20
49.27518820196875
 30
0.0
  0
VERTEX
  5
654
  8
LATERAL
 10
767.5243863458509
 20
48.93336465440297
 30
0.0
  0
VERTEX
  5
655
  8
LATERAL
 10
767.3073065349897
 20
48.58005885789255
 30
0.0
  0
VERTEX
  5
656
  8
LATERAL
 10
767.1082147541526
 20
48.21704812238933
 30
0.0
  0
VERTEX
  5
657
  8
LATERAL
 10
766.9269126059498
 20
47.84610975784514
 30
0.0
  0
VERTEX
  5
658
  8
LATERAL
 10
766.7625513904351
 20
47.46800842086721
 30
0.0
  0
VERTEX
  5
659
  8
LATERAL
 10
766.6151200855314
 20
47.08285295446798
 30
0.0
  0
VERTEX
  5
65A
  8
LATERAL
 10
766.4831196887365
 20
46.68949706261662
 30
0.0
  0
VERTEX
  5
65B
  8
LATERAL
 10
766.3675201428462
 20
46.2913796334059
 30
0.0
  0
VERTEX
  5
65C
  8
LATERAL
 10
766.2672302622152
 20
45.88588843453455
 30
0.0
  0
VERTEX
  5
65D
  8
LATERAL
 10
766.1831428350986
 20
45.47636315540043
 30
0.0
  0
VERTEX
  5
65E
  8
LATERAL
 10
766.1150594641065
 20
45.06379578295342
 30
0.0
  0
VERTEX
  5
65F
  8
LATERAL
 10
766.062781751849
 20
44.64917830414336
 30
0.0
  0
VERTEX
  5
660
  8
LATERAL
 10
766.026379964068
 20
44.23344484001471
 30
0.0
  0
VERTEX
  5
661
  8
LATERAL
 10
766.005544104842
 20
43.81584313379717
 30
0.0
  0
VERTEX
  5
662
  8
LATERAL
 10
766.0002989738447
 20
43.39721637439809
 30
0.0
  0
VERTEX
  5
663
  8
LATERAL
 10
766.0106693707496
 20
42.97840775072488
 30
0.0
  0
VERTEX
  5
664
  8
LATERAL
 10
766.0366800952307
 20
42.5602604516849
 30
0.0
  0
VERTEX
  5
665
  8
LATERAL
 10
766.0783559469618
 20
42.14361766618553
 30
0.0
  0
VERTEX
  5
666
  8
LATERAL
 10
766.1357217256165
 20
41.72932258313418
 30
0.0
  0
VERTEX
  5
667
  8
LATERAL
 10
766.2088022308684
 20
41.31821839143819
 30
0.0
  0
VERTEX
  5
668
  8
LATERAL
 10
766.2974197317227
 20
40.91436948207276
 30
0.0
  0
VERTEX
  5
669
  8
LATERAL
 10
766.401379964068
 20
40.51475305036001
 30
0.0
  0
VERTEX
  5
66A
  8
LATERAL
 10
766.5205947512868
 20
40.12113262865537
 30
0.0
  0
VERTEX
  5
66B
  8
LATERAL
 10
766.6553286232323
 20
39.7345663363719
 30
0.0
  0
VERTEX
  5
66C
  8
LATERAL
 10
766.8076096421132
 20
39.35122951271411
 30
0.0
  0
VERTEX
  5
66D
  8
LATERAL
 10
766.9768205716049
 20
38.97457206785205
 30
0.0
  0
VERTEX
  5
66E
  8
LATERAL
 10
767.1632259415609
 20
38.60598278351551
 30
0.0
  0
VERTEX
  5
66F
  8
LATERAL
 10
767.3670902818345
 20
38.24685044143432
 30
0.0
  0
VERTEX
  5
670
  8
LATERAL
 10
767.5883695041168
 20
37.89751672600231
 30
0.0
  0
VERTEX
  5
671
  8
LATERAL
 10
767.8279012862765
 20
37.56048364874858
 30
0.0
  0
VERTEX
  5
672
  8
LATERAL
 10
768.0856856283135
 20
37.23720612386624
 30
0.0
  0
VERTEX
  5
673
  8
LATERAL
 10
768.3617225302281
 20
36.92913906554845
 30
0.0
  0
VERTEX
  5
674
  8
LATERAL
 10
768.6560781244834
 20
36.63909310348643
 30
0.0
  0
VERTEX
  5
675
  8
LATERAL
 10
768.9685540136895
 20
36.36842395317836
 30
0.0
  0
VERTEX
  5
676
  8
LATERAL
 10
769.2987534030664
 20
36.11957851576723
 30
0.0
  0
VERTEX
  5
677
  8
LATERAL
 10
769.4703754119502
 20
36.00410434600519
 30
0.0
  0
VERTEX
  5
678
  8
LATERAL
 10
769.6462794978341
 20
35.89500369239602
 30
0.0
  0
VERTEX
  5
679
  8
LATERAL
 10
769.8261157097667
 20
35.79237713139432
 30
0.0
  0
VERTEX
  5
67A
  8
LATERAL
 10
770.0099198694986
 20
35.69722353874825
 30
0.0
  0
VERTEX
  5
67B
  8
LATERAL
 10
770.1974274471768
 20
35.60960904692112
 30
0.0
  0
VERTEX
  5
67C
  8
LATERAL
 10
770.3883739129476
 20
35.52959978837627
 30
0.0
  0
VERTEX
  5
67D
  8
LATERAL
 10
770.5842141810045
 20
35.45703043195535
 30
0.0
  0
VERTEX
  5
67E
  8
LATERAL
 10
770.7826997475945
 20
35.39345509054647
 30
0.0
  0
VERTEX
  5
67F
  8
LATERAL
 10
770.985417791837
 20
35.33816835120759
 30
0.0
  0
VERTEX
  5
680
  8
LATERAL
 10
771.1897230151995
 20
35.29187562688078
 30
0.0
  0
VERTEX
  5
681
  8
LATERAL
 10
771.3924286596052
 20
35.25553446052456
 30
0.0
  0
VERTEX
  5
682
  8
LATERAL
 10
771.595721229623
 20
35.22850970493911
 30
0.0
  0
VERTEX
  5
683
  8
LATERAL
 10
771.7994601937683
 20
35.21079309356653
 30
0.0
  0
VERTEX
  5
684
  8
LATERAL
 10
772.0035050205563
 20
35.2023763598489
 30
0.0
  0
VERTEX
  5
685
  8
LATERAL
 10
772.2077151785027
 20
35.2032512372283
 30
0.0
  0
VERTEX
  5
686
  8
LATERAL
 10
772.4119501361226
 20
35.2134094591468
 30
0.0
  0
VERTEX
  5
687
  8
LATERAL
 10
772.616069361932
 20
35.23284275904651
 30
0.0
  0
VERTEX
  5
688
  8
LATERAL
 10
772.819932324446
 20
35.2615428703695
 30
0.0
  0
VERTEX
  5
689
  8
LATERAL
 10
773.0221323310592
 20
35.29975641209356
 30
0.0
  0
VERTEX
  5
68A
  8
LATERAL
 10
773.2222822313094
 20
35.34663330651308
 30
0.0
  0
VERTEX
  5
68B
  8
LATERAL
 10
773.4201836278065
 20
35.40210742116471
 30
0.0
  0
VERTEX
  5
68C
  8
LATERAL
 10
773.6156381231607
 20
35.46611262358518
 30
0.0
  0
VERTEX
  5
68D
  8
LATERAL
 10
773.8108611548932
 20
35.53974009941929
 30
0.0
  0
VERTEX
  5
68E
  8
LATERAL
 10
774.0029098283862
 20
35.62130347085224
 30
0.0
  0
VERTEX
  5
68F
  8
LATERAL
 10
774.1895797281957
 20
35.70965644185316
 30
0.0
  0
VERTEX
  5
690
  8
LATERAL
 10
774.3725462100589
 20
35.80541624874635
 30
0.0
  0
VERTEX
  5
691
  8
LATERAL
 10
774.5505086688638
 20
35.90753579419589
 30
0.0
  0
VERTEX
  5
692
  8
LATERAL
 10
774.7238418552362
 20
36.01607018858787
 30
0.0
  0
VERTEX
  5
693
  8
LATERAL
 10
774.8929425639558
 20
36.13108556438559
 30
0.0
  0
VERTEX
  5
694
  8
LATERAL
 10
775.0582075898025
 20
36.25264805405239
 30
0.0
  0
VERTEX
  5
695
  8
LATERAL
 10
775.3812867172948
 20
36.51647249440644
 30
0.0
  0
VERTEX
  5
696
  8
LATERAL
 10
775.6853196953499
 20
36.80004849713993
 30
0.0
  0
VERTEX
  5
697
  8
LATERAL
 10
775.8313401743693
 20
36.94959604086996
 30
0.0
  0
VERTEX
  5
698
  8
LATERAL
 10
775.9724227627939
 20
37.10478688813708
 30
0.0
  0
VERTEX
  5
699
  8
LATERAL
 10
776.1120945253344
 20
37.25927232246198
 30
0.0
  0
VERTEX
  5
69A
  8
LATERAL
 10
776.2559987655275
 20
37.41093610501851
 30
0.0
  0
VERTEX
  5
69B
  8
LATERAL
 10
776.557915504756
 20
37.70015541128897
 30
0.0
  0
VERTEX
  5
69C
  8
LATERAL
 10
776.87817298048
 20
37.9682123292957
 30
0.0
  0
VERTEX
  5
69D
  8
LATERAL
 10
777.0446435460228
 20
38.09351819193858
 30
0.0
  0
VERTEX
  5
69E
  8
LATERAL
 10
777.2154375213554
 20
38.21264893581858
 30
0.0
  0
VERTEX
  5
69F
  8
LATERAL
 10
777.3904474412248
 20
38.32531523140864
 30
0.0
  0
VERTEX
  5
6A0
  8
LATERAL
 10
777.5695658403783
 20
38.43122774918174
 30
0.0
  0
VERTEX
  5
6A1
  8
LATERAL
 10
777.752685253563
 20
38.53009715961082
 30
0.0
  0
VERTEX
  5
6A2
  8
LATERAL
 10
777.9396982155258
 20
38.62163413316885
 30
0.0
  0
VERTEX
  5
6A3
  8
LATERAL
 10
778.1304972610139
 20
38.70554934032879
 30
0.0
  0
VERTEX
  5
6A4
  8
LATERAL
 10
778.3249749247744
 20
38.78155345156358
 30
0.0
  0
VERTEX
  5
6A5
  8
LATERAL
 10
778.5179935410629
 20
38.84786226812318
 30
0.0
  0
VERTEX
  5
6A6
  8
LATERAL
 10
778.7136574558842
 20
38.90570612937725
 30
0.0
  0
VERTEX
  5
6A7
  8
LATERAL
 10
778.9132893185051
 20
38.95579044826803
 30
0.0
  0
VERTEX
  5
6A8
  8
LATERAL
 10
779.1150374199523
 20
38.99670439891116
 30
0.0
  0
VERTEX
  5
6A9
  8
LATERAL
 10
779.3165761019324
 20
39.02816140729895
 30
0.0
  0
VERTEX
  5
6AA
  8
LATERAL
 10
779.5189745059356
 20
39.05049213574802
 30
0.0
  0
VERTEX
  5
6AB
  8
LATERAL
 10
779.722034234572
 20
39.06356431933173
 30
0.0
  0
VERTEX
  5
6AC
  8
LATERAL
 10
779.9255568904517
 20
39.06724569312344
 30
0.0
  0
VERTEX
  5
6AD
  8
LATERAL
 10
780.127400057315
 20
39.06217415984228
 30
0.0
  0
VERTEX
  5
6AE
  8
LATERAL
 10
780.328094172628
 20
39.04810034499113
 30
0.0
  0
VERTEX
  5
6AF
  8
LATERAL
 10
780.5274821717901
 20
39.02514824693873
 30
0.0
  0
VERTEX
  5
6B0
  8
LATERAL
 10
780.7254069902015
 20
38.99344186405382
 30
0.0
  0
VERTEX
  5
6B1
  8
LATERAL
 10
780.9217115632614
 20
38.95310519470512
 30
0.0
  0
VERTEX
  5
6B2
  8
LATERAL
 10
781.1162388263692
 20
38.90426223726136
 30
0.0
  0
VERTEX
  5
6B3
  8
LATERAL
 10
781.3088317149251
 20
38.84703699009127
 30
0.0
  0
VERTEX
  5
6B4
  8
LATERAL
 10
781.4993331643283
 20
38.78155345156358
 30
0.0
  0
VERTEX
  5
6B5
  8
LATERAL
 10
781.689265598995
 20
38.70757326925845
 30
0.0
  0
VERTEX
  5
6B6
  8
LATERAL
 10
781.8760236754222
 20
38.62565719135445
 30
0.0
  0
VERTEX
  5
6B7
  8
LATERAL
 10
782.0602246299339
 20
38.53624610094032
 30
0.0
  0
VERTEX
  5
6B8
  8
LATERAL
 10
782.2407221664997
 20
38.4394281746339
 30
0.0
  0
VERTEX
  5
6B9
  8
LATERAL
 10
782.4163810111655
 20
38.33658117208783
 30
0.0
  0
VERTEX
  5
6BA
  8
LATERAL
 10
782.5878735106419
 20
38.22718705567265
 30
0.0
  0
VERTEX
  5
6BB
  8
LATERAL
 10
782.9186240038799
 20
37.99008013050157
 30
0.0
  0
VERTEX
  5
6BC
  8
LATERAL
 10
783.2314415774798
 20
37.73187694953005
 30
0.0
  0
VERTEX
  5
6BD
  8
LATERAL
 10
783.5266017833723
 20
37.453966294488
 30
0.0
  0
VERTEX
  5
6BE
  8
LATERAL
 10
783.8041707540206
 20
37.1585966691284
 30
0.0
  0
VERTEX
  5
6BF
  8
LATERAL
 10
784.0642146218878
 20
36.84801657720428
 30
0.0
  0
VERTEX
  5
6C0
  8
LATERAL
 10
784.306171261036
 20
36.52361480044542
 30
0.0
  0
VERTEX
  5
6C1
  8
LATERAL
 10
784.5311979895733
 20
36.18704465043497
 30
0.0
  0
VERTEX
  5
6C2
  8
LATERAL
 10
784.7389421010286
 20
35.84015783614591
 30
0.0
  0
VERTEX
  5
6C3
  8
LATERAL
 10
784.9297563018728
 20
35.48374794713824
 30
0.0
  0
VERTEX
  5
6C4
  8
LATERAL
 10
785.1045223582837
 20
35.11823382234628
 30
0.0
  0
VERTEX
  5
6C5
  8
LATERAL
 10
785.2628875637904
 20
34.74518059673537
 30
0.0
  0
VERTEX
  5
6C6
  8
LATERAL
 10
785.405116448246
 20
34.36577865464536
 30
0.0
  0
VERTEX
  5
6C7
  8
LATERAL
 10
785.5314735415038
 20
33.98121838041608
 30
0.0
  0
VERTEX
  5
6C8
  8
LATERAL
 10
785.6424879032704
 20
33.59324126224841
 30
0.0
  0
VERTEX
  5
6C9
  8
LATERAL
 10
785.7381595335457
 20
33.20103166642797
 30
0.0
  0
VERTEX
  5
6CA
  8
LATERAL
 10
785.8179593726236
 20
32.80767577457657
 30
0.0
  0
VERTEX
  5
6CB
  8
LATERAL
 10
785.8834745996234
 20
32.41167458419226
 30
0.0
  0
VERTEX
  5
6CC
  8
LATERAL
 10
785.9343965963828
 20
32.01220143948341
 30
0.0
  0
VERTEX
  5
6CD
  8
LATERAL
 10
785.970769451211
 20
31.6109427182648
 30
0.0
  0
VERTEX
  5
6CE
  8
LATERAL
 10
785.9925931641079
 20
31.20849361270635
 30
0.0
  0
VERTEX
  5
6CF
  8
LATERAL
 10
785.9998677350735
 20
30.80544931497798
 30
0.0
  0
VERTEX
  5
6D0
  8
LATERAL
 10
785.9926041861851
 20
30.40363948989836
 30
0.0
  0
VERTEX
  5
6D1
  8
LATERAL
 10
785.9708576278288
 20
30.00189579728205
 30
0.0
  0
VERTEX
  5
6D2
  8
LATERAL
 10
785.9346941924678
 20
29.60107795915228
 30
0.0
  0
VERTEX
  5
6D3
  8
LATERAL
 10
785.8841800125654
 20
29.20204569753226
 30
0.0
  0
VERTEX
  5
6D4
  8
LATERAL
 10
785.8185766089479
 20
28.80630903700119
 30
0.0
  0
VERTEX
  5
6D5
  8
LATERAL
 10
785.7381595335457
 20
28.41127778941224
 30
0.0
  0
VERTEX
  5
6D6
  8
LATERAL
 10
785.6428406097414
 20
28.01862731050302
 30
0.0
  0
VERTEX
  5
6D7
  8
LATERAL
 10
785.532178954446
 20
27.62968024953994
 30
0.0
  0
VERTEX
  5
6D8
  8
LATERAL
 10
785.4054250664083
 20
27.24534041685505
 30
0.0
  0
VERTEX
  5
6D9
  8
LATERAL
 10
785.2630639170261
 20
26.86642344616275
 30
0.0
  0
VERTEX
  5
6DA
  8
LATERAL
 10
785.104830976446
 20
26.49385519194956
 30
0.0
  0
VERTEX
  5
6DB
  8
LATERAL
 10
784.9304617148149
 20
26.12856150870202
 30
0.0
  0
VERTEX
  5
6DC
  8
LATERAL
 10
784.7392948074996
 20
25.77232797292984
 30
0.0
  0
VERTEX
  5
6DD
  8
LATERAL
 10
784.5326088154576
 20
25.4252648054053
 30
0.0
  0
VERTEX
  5
6DE
  8
LATERAL
 10
784.3075820869202
 20
25.08895918524814
 30
0.0
  0
VERTEX
  5
6DF
  8
LATERAL
 10
784.065625447772
 20
24.764292878636
 30
0.0
  0
VERTEX
  5
6E0
  8
LATERAL
 10
783.8056807785997
 20
24.45340416854969
 30
0.0
  0
VERTEX
  5
6E1
  8
LATERAL
 10
783.5282771391097
 20
24.15799045488121
 30
0.0
  0
VERTEX
  5
6E2
  8
LATERAL
 10
783.233149999449
 20
23.88003571153027
 30
0.0
  0
VERTEX
  5
6E3
  8
LATERAL
 10
782.9200348297641
 20
23.62152391239658
 30
0.0
  0
VERTEX
  5
6E4
  8
LATERAL
 10
782.5891961599084
 20
23.38450516384327
 30
0.0
  0
VERTEX
  5
6E5
  8
LATERAL
 10
782.416458165706
 20
23.27454892148979
 30
0.0
  0
VERTEX
  5
6E6
  8
LATERAL
 10
782.2400167535575
 20
23.17147045532206
 30
0.0
  0
VERTEX
  5
6E7
  8
LATERAL
 10
782.0609631091077
 20
23.07537998611225
 30
0.0
  0
VERTEX
  5
6E8
  8
LATERAL
 10
781.8784044441018
 20
22.98629955801476
 30
0.0
  0
VERTEX
  5
6E9
  8
LATERAL
 10
781.6925391559296
 20
22.90462596580957
 30
0.0
  0
VERTEX
  5
6EA
  8
LATERAL
 10
781.503565641981
 20
22.83075600427663
 30
0.0
  0
VERTEX
  5
6EB
  8
LATERAL
 10
781.3125668213431
 20
22.76497900294296
 30
0.0
  0
VERTEX
  5
6EC
  8
LATERAL
 10
781.1195344274583
 20
22.7074189601773
 30
0.0
  0
VERTEX
  5
6ED
  8
LATERAL
 10
780.9246172583687
 20
22.65822467402213
 30
0.0
  0
VERTEX
  5
6EE
  8
LATERAL
 10
780.7279641121168
 20
22.61754494251993
 30
0.0
  0
VERTEX
  5
6EF
  8
LATERAL
 10
780.5297237867451
 20
22.58552856371318
 30
0.0
  0
VERTEX
  5
6F0
  8
LATERAL
 10
780.330045080296
 20
22.56232433564436
 30
0.0
  0
VERTEX
  5
6F1
  8
LATERAL
 10
780.1290767908123
 20
22.54808105635593
 30
0.0
  0
VERTEX
  5
6F2
  8
LATERAL
 10
779.926967716336
 20
22.5429475238904
 30
0.0
  0
VERTEX
  5
6F3
  8
LATERAL
 10
779.7213508657843
 20
22.5471579573887
 30
0.0
  0
VERTEX
  5
6F4
  8
LATERAL
 10
779.5163292074026
 20
22.560759200679
 30
0.0
  0
VERTEX
  5
6F5
  8
LATERAL
 10
779.3122334035073
 20
22.58361898883467
 30
0.0
  0
VERTEX
  5
6F6
  8
LATERAL
 10
779.1093941164153
 20
22.61560505692906
 30
0.0
  0
VERTEX
  5
6F7
  8
LATERAL
 10
778.9099496291072
 20
22.65604505825173
 30
0.0
  0
VERTEX
  5
6F8
  8
LATERAL
 10
778.7126875130889
 20
22.7052806771965
 30
0.0
  0
VERTEX
  5
6F9
  8
LATERAL
 10
778.5176739008234
 20
22.76311351637337
 30
0.0
  0
VERTEX
  5
6FA
  8
LATERAL
 10
778.3249749247744
 20
22.82934517839238
 30
0.0
  0
VERTEX
  5
6FB
  8
LATERAL
 10
778.1360124329032
 20
22.90280318978921
 30
0.0
  0
VERTEX
  5
6FC
  8
LATERAL
 10
777.9506210940515
 20
22.98384163479455
 30
0.0
  0
VERTEX
  5
6FD
  8
LATERAL
 10
777.7688670406826
 20
23.07217118388137
 30
0.0
  0
VERTEX
  5
6FE
  8
LATERAL
 10
777.5908164052598
 20
23.16750250752262
 30
0.0
  0
VERTEX
  5
6FF
  8
LATERAL
 10
777.2460899181061
 20
23.37801316036026
 30
0.0
  0
VERTEX
  5
700
  8
LATERAL
 10
776.9169706922968
 20
23.61305895709111
 30
0.0
  0
VERTEX
  5
701
  8
LATERAL
 10
776.6028855798165
 20
23.87079921081935
 30
0.0
  0
VERTEX
  5
702
  8
LATERAL
 10
776.3067884973603
 20
24.14917279310468
 30
0.0
  0
VERTEX
  5
703
  8
LATERAL
 10
776.1650004959936
 20
24.29448785918203
 30
0.0
  0
VERTEX
  5
704
  8
LATERAL
 10
776.0281503852217
 20
24.44403540291213
 30
0.0
  0
VERTEX
  5
705
  8
LATERAL
 10
775.8913002744498
 20
24.59569918546859
 30
0.0
  0
VERTEX
  5
706
  8
LATERAL
 10
775.8221698061217
 20
24.67047295733361
 30
0.0
  0
VERTEX
  5
707
  8
LATERAL
 10
775.7523339248515
 20
24.74383590331438
 30
0.0
  0
VERTEX
  5
708
  8
LATERAL
 10
775.6077242717163
 20
24.88703473056542
 30
0.0
  0
VERTEX
  5
709
  8
LATERAL
 10
775.4588821409284
 20
25.02600108016362
 30
0.0
  0
VERTEX
  5
70A
  8
LATERAL
 10
775.1513220981627
 20
25.28629845580705
 30
0.0
  0
VERTEX
  5
70B
  8
LATERAL
 10
774.8300946796435
 20
25.5233172043604
 30
0.0
  0
VERTEX
  5
70C
  8
LATERAL
 10
774.4924664102198
 20
25.7370573258237
 30
0.0
  0
VERTEX
  5
70D
  8
LATERAL
 10
774.3161131746889
 20
25.83510972477882
 30
0.0
  0
VERTEX
  5
70E
  8
LATERAL
 10
774.1348220485634
 20
25.92751882019692
 30
0.0
  0
VERTEX
  5
70F
  8
LATERAL
 10
773.9505329174337
 20
26.01234472648724
 30
0.0
  0
VERTEX
  5
710
  8
LATERAL
 10
773.7630694280646
 20
26.08976379688527
 30
0.0
  0
VERTEX
  5
711
  8
LATERAL
 10
773.5751099452204
 20
26.15837622758394
 30
0.0
  0
VERTEX
  5
712
  8
LATERAL
 10
773.3847035612333
 20
26.21911889514707
 30
0.0
  0
VERTEX
  5
713
  8
LATERAL
 10
773.1917841436399
 20
26.27179340218467
 30
0.0
  0
VERTEX
  5
714
  8
LATERAL
 10
772.9962855599767
 20
26.31620135130675
 30
0.0
  0
VERTEX
  5
715
  8
LATERAL
 10
772.7982780759864
 20
26.35227247677106
 30
0.0
  0
VERTEX
  5
716
  8
LATERAL
 10
772.5995679345731
 20
26.37952318493953
 30
0.0
  0
VERTEX
  5
717
  8
LATERAL
 10
772.4003122003373
 20
26.3979286761384
 30
0.0
  0
VERTEX
  5
718
  8
LATERAL
 10
772.2006679378796
 20
26.40746415069394
 30
0.0
  0
VERTEX
  5
719
  8
LATERAL
 10
772.0007922118003
 20
26.40810480893239
 30
0.0
  0
VERTEX
  5
71A
  8
LATERAL
 10
771.8008420866997
 20
26.39982585118003
 30
0.0
  0
VERTEX
  5
71B
  8
LATERAL
 10
771.6009746271784
 20
26.38260247776308
 30
0.0
  0
VERTEX
  5
71C
  8
LATERAL
 10
771.4013468978363
 20
26.35640988900781
 30
0.0
  0
VERTEX
  5
71D
  8
LATERAL
 10
771.1988933834471
 20
26.32043382895949
 30
0.0
  0
VERTEX
  5
71E
  8
LATERAL
 10
770.9985561078842
 20
26.27599281360575
 30
0.0
  0
VERTEX
  5
71F
  8
LATERAL
 10
770.802804016445
 20
26.22308684294651
 30
0.0
  0
VERTEX
  5
720
  8
LATERAL
 10
770.6091681638321
 20
26.16171591698179
 30
0.0
  0
VERTEX
  5
721
  8
LATERAL
 10
770.4192467512428
 20
26.0927177135804
 30
0.0
  0
VERTEX
  5
722
  8
LATERAL
 10
770.2325658293562
 20
26.0160481444334
 30
0.0
  0
VERTEX
  5
723
  8
LATERAL
 10
770.0491915306359
 20
25.9319717393941
 30
0.0
  0
VERTEX
  5
724
  8
LATERAL
 10
769.869189987545
 20
25.84075302831581
 30
0.0
  0
VERTEX
  5
725
  8
LATERAL
 10
769.6928808403231
 20
25.74308640206342
 30
0.0
  0
VERTEX
  5
726
  8
LATERAL
 10
769.5205396409008
 20
25.6387403970153
 30
0.0
  0
VERTEX
  5
727
  8
LATERAL
 10
769.1877610854541
 20
25.41186195950497
 30
0.0
  0
VERTEX
  5
728
  8
LATERAL
 10
768.8703252614988
 20
25.16144036505131
 30
0.0
  0
VERTEX
  5
729
  8
LATERAL
 10
768.5705247610965
 20
24.89056179527604
 30
0.0
  0
VERTEX
  5
72A
  8
LATERAL
 10
768.2874447518379
 20
24.60180541624882
 30
0.0
  0
VERTEX
  5
72B
  8
LATERAL
 10
768.0221543752136
 20
24.29730951095051
 30
0.0
  0
VERTEX
  5
72C
  8
LATERAL
 10
767.7744552338336
 20
23.9785289935742
 30
0.0
  0
VERTEX
  5
72D
  8
LATERAL
 10
767.5441489303075
 20
23.64691877831306
 30
0.0
  0
VERTEX
  5
72E
  8
LATERAL
 10
767.3314338620256
 20
23.3048596338467
 30
0.0
  0
VERTEX
  5
72F
  8
LATERAL
 10
767.1354503069649
 20
22.95261609002842
 30
0.0
  0
VERTEX
  5
730
  8
LATERAL
 10
766.9559998677352
 20
22.59164306105137
 30
0.0
  0
VERTEX
  5
731
  8
LATERAL
 10
766.7928841469463
 20
22.22339546110866
 30
0.0
  0
VERTEX
  5
732
  8
LATERAL
 10
766.6462464316025
 20
21.85129013413875
 30
0.0
  0
VERTEX
  5
733
  8
LATERAL
 10
766.5149514477498
 20
21.4728360906897
 30
0.0
  0
VERTEX
  5
734
  8
LATERAL
 10
766.3989991953883
 20
21.08935598002806
 30
0.0
  0
VERTEX
  5
735
  8
LATERAL
 10
766.298389674518
 20
20.70111433200706
 30
0.0
  0
VERTEX
  5
736
  8
LATERAL
 10
766.2121529423436
 20
20.30923539850326
 30
0.0
  0
VERTEX
  5
737
  8
LATERAL
 10
766.1407298819536
 20
19.91404984183324
 30
0.0
  0
VERTEX
  5
738
  8
LATERAL
 10
766.0841204933482
 20
19.51648351648356
 30
0.0
  0
VERTEX
  5
739
  8
LATERAL
 10
766.0423247765275
 20
19.11746227694077
 30
0.0
  0
VERTEX
  5
73A
  8
LATERAL
 10
766.0147254951668
 20
18.71846308155239
 30
0.0
  0
VERTEX
  5
73B
  8
LATERAL
 10
766.0014108258842
 20
18.3189348264574
 30
0.0
  0
VERTEX
  5
73C
  8
LATERAL
 10
766.0
 20
18.21947160161809
 30
0.0
  0
VERTEX
  5
73D
  8
LATERAL
 10
766.0
 20
18.11507048618386
 30
0.0
  0
VERTEX
  5
73E
  8
LATERAL
 10
766.0
 20
17.88228421528327
 30
0.0
  0
VERTEX
  5
73F
  8
LATERAL
 10
766.0
 20
17.41671167348204
 30
0.0
  0
VERTEX
  5
740
  8
LATERAL
 10
766.0
 20
15.55653774510345
 30
0.0
  0
VERTEX
  5
741
  8
LATERAL
 10
766.0
 20
15.09096520330228
 30
0.0
  0
VERTEX
  5
742
  8
LATERAL
 10
766.0
 20
15.03241592910603
 30
0.0
  0
VERTEX
  5
743
  8
LATERAL
 10
766.0
 20
14.97457206785196
 30
0.0
  0
VERTEX
  5
744
  8
LATERAL
 10
766.0
 20
14.85888434534376
 30
0.0
  0
VERTEX
  5
745
  8
LATERAL
 10
766.0
 20
14.62750890032736
 30
0.0
  0
VERTEX
  5
746
  8
LATERAL
 10
766.0
 20
13.70200712026189
 30
0.0
  0
VERTEX
  5
747
  8
LATERAL
 10
766.0
 20
10.0
 30
0.0
  0
VERTEX
  5
748
  8
LATERAL
 10
760.6336493347737
 20
10.0
 30
0.0
  0
SEQEND
  5
749
  8
LATERAL
  0
POLYLINE
  5
48
  8
LATERAL
 66
     1
 10
0.0
 20
0.0
 30
0.0
 70
     1
  0
VERTEX
  5
74A
  8
LATERAL
 10
71.65407999999994
 20
4.877759999999995
 30
0.0
  0
VERTEX
  5
74B
  8
LATERAL
 10
138.1014399999999
 20
4.877759999999995
 30
0.0
  0
VERTEX
  5
74C
  8
LATERAL
 10
138.1014399999999
 20
146.15904
 30
0.0
  0
VERTEX
  5
74D
  8
LATERAL
 10
71.65407999999994
 20
146.15904
 30
0.0
  0
SEQEND
  5
74E
  8
LATERAL
  0
POLYLINE
  5
49
  8
LATERAL
 66
     1
 10
0.0
 20
0.0
 30
0.0
 70
     1
  0
VERTEX
  5
74F
  8
LATERAL
 10
257.44864
 20
4.877759999999995
 30
0.0
  0
VERTEX
  5
750
  8
LATERAL
 10
326.47648
 20
4.877759999999995
 30
0.0
  0
VERTEX
  5
751
  8
LATERAL
 10
326.47648
 20
147.44928
 30
0.0
  0
VERTEX
  5
752
  8
LATERAL
 10
257.44864
 20
147.44928
 30
0.0
  0
SEQEND
  5
753
  8
LATERAL
  0
POLYLINE
  5
4A
  8
LATERAL
 66
     1
 10
0.0
 20
0.0
 30
0.0
 70
     1
  0
VERTEX
  5
754
  8
LATERAL
 10
447.75904
 20
4.877759999999995
 30
0.0
  0
VERTEX
  5
755
  8
LATERAL
 10
515.4966400000001
 20
4.877759999999995
 30
0.0
  0
VERTEX
  5
756
  8
LATERAL
 10
515.4966400000001
 20
148.73952
 30
0.0
  0
VERTEX
  5
757
  8
LATERAL
 10
447.75904
 20
148.73952
 30
0.0
  0
SEQEND
  5
758
  8
LATERAL
  0
POLYLINE
  5
4B
  8
LATERAL
 66
     1
 10
0.0
 20
0.0
 30
0.0
 70
     1
  0
VERTEX
  5
759
  8
LATERAL
 10
636.7792000000002
 20
4.877759999999995
 30
0.0
  0
VERTEX
  5
75A
  8
LATERAL
 10
703.8716800000002
 20
4.877759999999995
 30
0.0
  0
VERTEX
  5
75B
  8
LATERAL
 10
703.8716800000002
 20
148.0944
 30
0.0
  0
VERTEX
  5
75C
  8
LATERAL
 10
636.7792000000002
 20
148.0944
 30
0.0
  0
SEQEND
  5
75D
  8
LATERAL
  0
POLYLINE
  5
4C
  8
LATERAL
 66
     1
 10
0.0
 20
0.0
 30
0.0
  0
VERTEX
  5
75E
  8
LATERAL
 10
81.86
 20
10.0
 30
0.0
  0
VERTEX
  5
75F
  8
LATERAL
 10
82.12
 20
141.488
 30
0.0
  0
SEQEND
  5
760
  8
LATERAL
  0
POLYLINE
  5
4D
  8
LATERAL
 66
     1
 10
0.0
 20
0.0
 30
0.0
  0
VERTEX
  5
761
  8
LATERAL
 10
89.12
 20
10.0
 30
0.0
  0
VERTEX
  5
762
  8
LATERAL
 10
89.38000000000001
 20
141.488
 30
0.0
  0
SEQEND
  5
763
  8
LATERAL
  0
POLYLINE
  5
4E
  8
LATERAL
 66
     1
 10
0.0
 20
0.0
 30
0.0
  0
VERTEX
  5
764
  8
LATERAL
 10
96.38000000000001
 20
10.0
 30
0.0
  0
VERTEX
  5
765
  8
LATERAL
 10
96.64000000000001
 20
141.488
 30
0.0
  0
SEQEND
  5
766
  8
LATERAL
  0
POLYLINE
  5
4F
  8
LATERAL
 66
     1
 10
0.0
 20
0.0
 30
0.0
  0
VERTEX
  5
767
  8
LATERAL
 10
103.64
 20
10.0
 30
0.0
  0
VERTEX
  5
768
  8
LATERAL
 10
103.9
 20
141.488
 30
0.0
  0
SEQEND
  5
769
  8
LATERAL
  0
POLYLINE
  5
50
  8
LATERAL
 66
     1
 10
0.0
 20
0.0
 30
0.0
  0
VERTEX
  5
76A
  8
LATERAL
 10
110.9
 20
10.0
 30
0.0
  0
VERTEX
  5
76B
  8
LATERAL
 10
111.16
 20
141.488
 30
0.0
  0
SEQEND
  5
76C
  8
LATERAL
  0
POLYLINE
  5
51
  8
LATERAL
 66
     1
 10
0.0
 20
0.0
 30
0.0
  0
VERTEX
  5
76D
  8
LATERAL
 10
118.16
 20
10.0
 30
0.0
  0
VERTEX
  5
76E
  8
LATERAL
 10
118.42
 20
141.488
 30
0.0
  0
SEQEND
  5
76F
  8
LATERAL
  0
POLYLINE
  5
52
  8
LATERAL
 66
     1
 10
0.0
 20
0.0
 30
0.0
  0
VERTEX
  5
770
  8
LATERAL
 10
125.42
 20
10.0
 30
0.0
  0
VERTEX
  5
771
  8
LATERAL
 10
125.68
 20
141.488
 30
0.0
  0
SEQEND
  5
772
  8
LATERAL
  0
POLYLINE
  5
53
  8
LATERAL
 66
     1
 10
0.0
 20
0.0
 30
0.0
  0
VERTEX
  5
773
  8
LATERAL
 10
132.68
 20
10.0
 30
0.0
  0
VERTEX
  5
774
  8
LATERAL
 10
132.9400000000001
 20
141.488
 30
0.0
  0
SEQEND
  5
775
  8
LATERAL
  0
POLYLINE
  5
54
  8
LATERAL
 66
     1
 10
0.0
 20
0.0
 30
0.0
  0
VERTEX
  5
776
  8
LATERAL
 10
271.06
 20
10.0
 30
0.0
  0
VERTEX
  5
777
  8
LATERAL
 10
271.32
 20
141.488
 30
0.0
  0
SEQEND
  5
778
  8
LATERAL
  0
POLYLINE
  5
55
  8
LATERAL
 66
     1
 10
0.0
 20
0.0
 30
0.0
  0
VERTEX
  5
779
  8
LATERAL
 10
278.32
 20
10.0
 30
0.0
  0
VERTEX
  5
77A
  8
LATERAL
 10
278.58
 20
141.488
 30
0.0
  0
SEQEND
  5
77B
  8
LATERAL
  0
POLYLINE
  5
56
  8
LATERAL
 66
     1
 10
0.0
 20
0.0
 30
0.0
  0
VERTEX
  5
77C
  8
LATERAL
 10
285.58
 20
10.0
 30
0.0
  0
VERTEX
  5
77D
  8
LATERAL
 10
285.84
 20
141.488
 30
0.0
  0
SEQEND
  5
77E
  8
LATERAL
  0
POLYLINE
  5
57
  8
LATERAL
 66
     1
 10
0.0
 20
0.0
 30
0.0
  0
VERTEX
  5
77F
  8
LATERAL
 10
292.84
 20
10.0
 30
0.0
  0
VERTEX
  5
780
  8
LATERAL
 10
293.1
 20
141.488
 30
0.0
  0
SEQEND
  5
781
  8
LATERAL
  0
POLYLINE
  5
58
  8
LATERAL
 66
     1
 10
0.0
 20
0.0
 30
0.0
  0
VERTEX
  5
782
  8
LATERAL
 10
300.1
 20
10.0
 30
0.0
  0
VERTEX
  5
783
  8
LATERAL
 10
300.36
 20
141.488
 30
0.0
  0
SEQEND
  5
784
  8
LATERAL
  0
POLYLINE
  5
59
  8
LATERAL
 66
     1
 10
0.0
 20
0.0
 30
0.0
  0
VERTEX
  5
785
  8
LATERAL
 10
307.36
 20
10.0
 30
0.0
  0
VERTEX
  5
786
  8
LATERAL
 10
307.6199999999999
 20
141.488
 30
0.0
  0
SEQEND
  5
787
  8
LATERAL
  0
POLYLINE
  5
5A
  8
LATERAL
 66
     1
 10
0.0
 20
0.0
 30
0.0
  0
VERTEX
  5
788
  8
LATERAL
 10
314.6199999999999
 20
10.0
 30
0.0
  0
VERTEX
  5
789
  8
LATERAL
 10
314.8799999999999
 20
141.488
 30
0.0
  0
SEQEND
  5
78A
  8
LATERAL
  0
POLYLINE
  5
5B
  8
LATERAL
 66
     1
 10
0.0
 20
0.0
 30
0.0
  0
VERTEX
  5
78B
  8
LATERAL
 10
321.8799999999999
 20
10.0
 30
0.0
  0
VERTEX
  5
78C
  8
LATERAL
 10
322.1399999999999
 20
141.488
 30
0.0
  0
SEQEND
  5
78D
  8
LATERAL
  0
POLYLINE
  5
5C
  8
LATERAL
 66
     1
 10
0.0
 20
0.0
 30
0.0
  0
VERTEX
  5
78E
  8
LATERAL
 10
460.26
 20
10.0
 30
0.0
  0
VERTEX
  5
78F
  8
LATERAL
 10
460.52
 20
141.488
 30
0.0
  0
SEQEND
  5
790
  8
LATERAL
  0
POLYLINE
  5
5D
  8
LATERAL
 66
     1
 10
0.0
 20
0.0
 30
0.0
  0
VERTEX
  5
791
  8
LATERAL
 10
467.52
 20
10.0
 30
0.0
  0
VERTEX
  5
792
  8
LATERAL
 10
467.78
 20
141.488
 30
0.0
  0
SEQEND
  5
793
  8
LATERAL
  0
POLYLINE
  5
5E
  8
LATERAL
 66
     1
 10
0.0
 20
0.0
 30
0.0
  0
VERTEX
  5
794
  8
LATERAL
 10
474.78
 20
10.0
 30
0.0
  0
VERTEX
  5
795
  8
LATERAL
 10
475.04
 20
141.488
 30
0.0
  0
SEQEND
  5
796
  8
LATERAL
  0
POLYLINE
  5
5F
  8
LATERAL
 66
     1
 10
0.0
 20
0.0
 30
0.0
  0
VERTEX
  5
797
  8
LATERAL
 10
482.04
 20
10.0
 30
0.0
  0
VERTEX
  5
798
  8
LATERAL
 10
482.3
 20
141.488
 30
0.0
  0
SEQEND
  5
799
  8
LATERAL
  0
POLYLINE
  5
60
  8
LATERAL
 66
     1
 10
0.0
 20
0.0
 30
0.0
  0
VERTEX
  5
79A
  8
LATERAL
 10
489.3
 20
10.0
 30
0.0
  0
VERTEX
  5
79B
  8
LATERAL
 10
489.5599999999999
 20
141.488
 30
0.0
  0
SEQEND
  5
79C
  8
LATERAL
  0
POLYLINE
  5
61
  8
LATERAL
 66
     1
 10
0.0
 20
0.0
 30
0.0
  0
VERTEX
  5
79D
  8
LATERAL
 10
496.5599999999999
 20
10.0
 30
0.0
  0
VERTEX
  5
79E
  8
LATERAL
 10
496.8199999999999
 20
141.488
 30
0.0
  0
SEQEND
  5
79F
  8
LATERAL
  0
POLYLINE
  5
62
  8
LATERAL
 66
     1
 10
0.0
 20
0.0
 30
0.0
  0
VERTEX
  5
7A0
  8
LATERAL
 10
503.8199999999999
 20
10.0
 30
0.0
  0
VERTEX
  5
7A1
  8
LATERAL
 10
504.0799999999999
 20
141.488
 30
0.0
  0
SEQEND
  5
7A2
  8
LATERAL
  0
POLYLINE
  5
63
  8
LATERAL
 66
     1
 10
0.0
 20
0.0
 30
0.0
  0
VERTEX
  5
7A3
  8
LATERAL
 10
511.0799999999999
 20
10.0
 30
0.0
  0
VERTEX
  5
7A4
  8
LATERAL
 10
511.3399999999999
 20
141.488
 30
0.0
  0
SEQEND
  5
7A5
  8
LATERAL
  0
POLYLINE
  5
64
  8
LATERAL
 66
     1
 10
0.0
 20
0.0
 30
0.0
  0
VERTEX
  5
7A6
  8
LATERAL
 10
649.46
 20
10.0
 30
0.0
  0
VERTEX
  5
7A7
  8
LATERAL
 10
649.72
 20
141.488
 30
0.0
  0
SEQEND
  5
7A8
  8
LATERAL
  0
POLYLINE
  5
65
  8
LATERAL
 66
     1
 10
0.0
 20
0.0
 30
0.0
  0
VERTEX
  5
7A9
  8
LATERAL
 10
656.72
 20
10.0
 30
0.0
  0
VERTEX
  5
7AA
  8
LATERAL
 10
656.98
 20
141.488
 30
0.0
  0
SEQEND
  5
7AB
  8
LATERAL
  0
POLYLINE
  5
66
  8
LATERAL
 66
     1
 10
0.0
 20
0.0
 30
0.0
  0
VERTEX
  5
7AC
  8
LATERAL
 10
663.98
 20
10.0
 30
0.0
  0
VERTEX
  5
7AD
  8
LATERAL
 10
664.24
 20
141.488
 30
0.0
  0
SEQEND
  5
7AE
  8
LATERAL
  0
POLYLINE
  5
67
  8
LATERAL
 66
     1
 10
0.0
 20
0.0
 30
0.0
  0
VERTEX
  5
7AF
  8
LATERAL
 10
671.24
 20
10.0
 30
0.0
  0
VERTEX
  5
7B0
  8
LATERAL
 10
671.5
 20
141.488
 30
0.0
  0
SEQEND
  5
7B1
  8
LATERAL
  0
POLYLINE
  5
68
  8
LATERAL
 66
     1
 10
0.0
 20
0.0
 30
0.0
  0
VERTEX
  5
7B2
  8
LATERAL
 10
678.5
 20
10.0
 30
0.0
  0
VERTEX
  5
7B3
  8
LATERAL
 10
678.76
 20
141.488
 30
0.0
  0
SEQEND
  5
7B4
  8
LATERAL
  0
POLYLINE
  5
69
  8
LATERAL
 66
     1
 10
0.0
 20
0.0
 30
0.0
  0
VERTEX
  5
7B5
  8
LATERAL
 10
685.76
 20
10.0
 30
0.0
  0
VERTEX
  5
7B6
  8
LATERAL
 10
686.02
 20
141.488
 30
0.0
  0
SEQEND
  5
7B7
  8
LATERAL
  0
POLYLINE
  5
6A
  8
LATERAL
 66
     1
 10
0.0
 20
0.0
 30
0.0
  0
VERTEX
  5
7B8
  8
LATERAL
 10
693.02
 20
10.0
 30
0.0
  0
VERTEX
  5
7B9
  8
LATERAL
 10
693.28
 20
141.488
 30
0.0
  0
SEQEND
  5
7BA
  8
LATERAL
  0
POLYLINE
  5
6B
  8
LATERAL
 66
     1
 10
0.0
 20
0.0
 30
0.0
  0
VERTEX
  5
7BB
  8
LATERAL
 10
700.28
 20
10.0
 30
0.0
  0
VERTEX
  5
7BC
  8
LATERAL
 10
700.54
 20
141.488
 30
0.0
  0
SEQEND
  5
7BD
  8
LATERAL
  0
ENDSEC
  0
EOF
