  0
SECTION
  2
HEADER
  9
$ACADVER
  1
AC1024
  9
$ACADMAINTVER
 70
     6
  9
$DWGCODEPAGE
  3
ANSI_1252
  9
$INSBASE
 10
0.0
 20
0.0
 30
0.0
  9
$EXTMIN
 10
1.000000000000000E+20
 20
1.000000000000000E+20
 30
1.000000000000000E+20
  9
$EXTMAX
 10
-1.000000000000000E+20
 20
-1.000000000000000E+20
 30
-1.000000000000000E+20
  9
$LIMMIN
 10
0.0
 20
0.0
  9
$LIMMAX
 10
12.0
 20
9.0
  9
$ORTHOMODE
 70
     0
  9
$REGENMODE
 70
     1
  9
$FILLMODE
 70
     1
  9
$QTEXTMODE
 70
     0
  9
$MIRRTEXT
 70
     1
  9
$LTSCALE
 40
1.0
  9
$ATTMODE
 70
     1
  9
$TEXTSIZE
 40
2.5
  9
$TRACEWID
 40
0.05
  9
$TEXTSTYLE
  7
STANDARD
  9
$CLAYER
  8
0
  9
$CELTYPE
  6
BYBLOCK
  9
$CECOLOR
 62
   256
  9
$CELTSCALE
 40
1.0
  9
$DISPSILH
 70
     0
  9
$DIMSCALE
 40
1.0
  9
$DIMASZ
 40
0.18
  9
$DIMEXO
 40
0.0625
  9
$DIMDLI
 40
0.38
  9
$DIMRND
 40
0.0
  9
$DIMDLE
 40
0.0
  9
$DIMEXE
 40
0.18
  9
$DIMTP
 40
0.0
  9
$DIMTM
 40
0.0
  9
$DIMTXT
 40
0.18
  9
$DIMCEN
 40
0.09
  9
$DIMTSZ
 40
0.0
  9
$DIMTOL
 70
     0
  9
$DIMLIM
 70
     0
  9
$DIMTIH
 70
     1
  9
$DIMTOH
 70
     1
  9
$DIMSE1
 70
     0
  9
$DIMSE2
 70
     0
  9
$DIMTAD
 70
     0
  9
$DIMZIN
 70
     0
  9
$DIMBLK
  1

  9
$DIMASO
 70
     1
  9
$DIMSHO
 70
     1
  9
$DIMPOST
  1

  9
$DIMAPOST
  1

  9
$DIMALT
 70
     0
  9
$DIMALTD
 70
     2
  9
$DIMALTF
 40
25.4
  9
$DIMLFAC
 40
1.0
  9
$DIMTOFL
 70
     0
  9
$DIMTVP
 40
0.0
  9
$DIMTIX
 70
     0
  9
$DIMSOXD
 70
     0
  9
$DIMSAH
 70
     0
  9
$DIMBLK1
  1

  9
$DIMBLK2
  1

  9
$DIMSTYLE
  2
ISO-25
  9
$DIMCLRD
 70
     0
  9
$DIMCLRE
 70
     0
  9
$DIMCLRT
 70
     0
  9
$DIMTFAC
 40
1.0
  9
$DIMGAP
 40
0.09
  9
$DIMJUST
 70
     0
  9
$DIMSD1
 70
     0
  9
$DIMSD2
 70
     0
  9
$DIMTOLJ
 70
     1
  9
$DIMTZIN
 70
     0
  9
$DIMALTZ
 70
     0
  9
$DIMALTTZ
 70
     0
  9
$DIMUPT
 70
     0
  9
$DIMDEC
 70
     4
  9
$DIMTDEC
 70
     4
  9
$DIMALTU
 70
     2
  9
$DIMALTTD
 70
     2
  9
$DIMTXSTY
  7
STANDARD
  9
$DIMAUNIT
 70
     0
  9
$DIMADEC
 70
     0
  9
$DIMALTRND
 40
0.0
  9
$DIMAZIN
 70
     0
  9
$DIMDSEP
 70
    46
  9
$DIMATFIT
 70
     3
  9
$DIMFRAC
 70
     0
  9
$DIMLDRBLK
  1

  9
$DIMLUNIT
 70
     2
  9
$DIMLWD
 70
    -2
  9
$DIMLWE
 70
    -2
  9
$DIMTMOVE
 70
     2
  9
$DIMFXL
 40
1.0
  9
$DIMFXLON
 70
     0
  9
$DIMJOGANG
 40
0.7853981633974483
  9
$DIMTFILL
 70
     0
  9
$DIMTFILLCLR
 70
     0
  9
$DIMARCSYM
 70
     0
  9
$DIMLTYPE
  6

  9
$DIMLTEX1
  6

  9
$DIMLTEX2
  6

  9
$DIMTXTDIRECTION
 70
     0
  9
$LUNITS
 70
     2
  9
$LUPREC
 70
     4
  9
$SKETCHINC
 40
0.1
  9
$FILLETRAD
 40
0.5
  9
$AUNITS
 70
     0
  9
$AUPREC
 70
     0
  9
$MENU
  1
.
  9
$ELEVATION
 40
0.0
  9
$PELEVATION
 40
0.0
  9
$THICKNESS
 40
0.0
  9
$LIMCHECK
 70
     0
  9
$CHAMFERA
 40
0.5
  9
$CHAMFERB
 40
0.5
  9
$CHAMFERC
 40
1.0
  9
$CHAMFERD
 40
0.0
  9
$SKPOLY
 70
     0
  9
$TDCREATE
 40
0.0
  9
$TDUCREATE
 40
0.0
  9
$TDUPDATE
 40
2456080.502187489
  9
$TDUUPDATE
 40
2456080.460520833
  9
$TDINDWG
 40
0.0
  9
$TDUSRTIMER
 40
2456080.457627315
  9
$USRTIMER
 70
     1
  9
$ANGBASE
 50
0.0
  9
$ANGDIR
 70
     0
  9
$PDMODE
 70
     0
  9
$PDSIZE
 40
0.0
  9
$PLINEWID
 40
0.0
  9
$SPLFRAME
 70
     0
  9
$SPLINETYPE
 70
     6
  9
$SPLINESEGS
 70
     8
  9
$HANDSEED
  5
1010B
  9
$SURFTAB1
 70
     6
  9
$SURFTAB2
 70
     6
  9
$SURFTYPE
 70
     6
  9
$SURFU
 70
     6
  9
$SURFV
 70
     6
  9
$UCSBASE
  2

  9
$UCSNAME
  2

  9
$UCSORG
 10
0.0
 20
0.0
 30
0.0
  9
$UCSXDIR
 10
1.0
 20
0.0
 30
0.0
  9
$UCSYDIR
 10
0.0
 20
1.0
 30
0.0
  9
$UCSORTHOREF
  2

  9
$UCSORTHOVIEW
 70
     0
  9
$UCSORGTOP
 10
0.0
 20
0.0
 30
0.0
  9
$UCSORGBOTTOM
 10
0.0
 20
0.0
 30
0.0
  9
$UCSORGLEFT
 10
0.0
 20
0.0
 30
0.0
  9
$UCSORGRIGHT
 10
0.0
 20
0.0
 30
0.0
  9
$UCSORGFRONT
 10
0.0
 20
0.0
 30
0.0
  9
$UCSORGBACK
 10
0.0
 20
0.0
 30
0.0
  9
$PUCSBASE
  2

  9
$PUCSNAME
  2

  9
$PUCSORG
 10
0.0
 20
0.0
 30
0.0
  9
$PUCSXDIR
 10
1.0
 20
0.0
 30
0.0
  9
$PUCSYDIR
 10
0.0
 20
1.0
 30
0.0
  9
$PUCSORTHOREF
  2

  9
$PUCSORTHOVIEW
 70
     0
  9
$PUCSORGTOP
 10
0.0
 20
0.0
 30
0.0
  9
$PUCSORGBOTTOM
 10
0.0
 20
0.0
 30
0.0
  9
$PUCSORGLEFT
 10
0.0
 20
0.0
 30
0.0
  9
$PUCSORGRIGHT
 10
0.0
 20
0.0
 30
0.0
  9
$PUCSORGFRONT
 10
0.0
 20
0.0
 30
0.0
  9
$PUCSORGBACK
 10
0.0
 20
0.0
 30
0.0
  9
$USERI1
 70
     0
  9
$USERI2
 70
     0
  9
$USERI3
 70
     0
  9
$USERI4
 70
     0
  9
$USERI5
 70
     0
  9
$USERR1
 40
0.0
  9
$USERR2
 40
0.0
  9
$USERR3
 40
0.0
  9
$USERR4
 40
0.0
  9
$USERR5
 40
0.0
  9
$WORLDVIEW
 70
     1
  9
$SHADEDGE
 70
     3
  9
$SHADEDIF
 70
    70
  9
$TILEMODE
 70
     1
  9
$MAXACTVP
 70
    64
  9
$PINSBASE
 10
0.0
 20
0.0
 30
0.0
  9
$PLIMCHECK
 70
     0
  9
$PEXTMIN
 10
1.000000000000000E+20
 20
1.000000000000000E+20
 30
1.000000000000000E+20
  9
$PEXTMAX
 10
-1.000000000000000E+20
 20
-1.000000000000000E+20
 30
-1.000000000000000E+20
  9
$PLIMMIN
 10
0.0
 20
0.0
  9
$PLIMMAX
 10
12.0
 20
9.0
  9
$UNITMODE
 70
     0
  9
$VISRETAIN
 70
     1
  9
$PLINEGEN
 70
     0
  9
$PSLTSCALE
 70
     1
  9
$TREEDEPTH
 70
  3020
  9
$CMLSTYLE
  2

  9
$CMLJUST
 70
     0
  9
$CMLSCALE
 40
1.0
  9
$PROXYGRAPHICS
 70
     1
  9
$MEASUREMENT
 70
     1
  9
$CELWEIGHT
370
    -1
  9
$ENDCAPS
280
     0
  9
$JOINSTYLE
280
     0
  9
$LWDISPLAY
290
     0
  9
$INSUNITS
 70
     0
  9
$HYPERLINKBASE
  1

  9
$STYLESHEET
  1

  9
$XEDIT
290
     1
  9
$CEPSNTYPE
380
     0
  9
$PSTYLEMODE
290
     1
  9
$FINGERPRINTGUID
  2
{5B275628-F142-FCF3-9E87-BA8560EC043C}
  9
$VERSIONGUID
  2
{FAEB1C32-E019-11D5-929B-00C0DF256EC4}
  9
$EXTNAMES
290
     1
  9
$PSVPSCALE
 40
0.0
  9
$OLESTARTUP
290
     0
  9
$SORTENTS
280
   127
  9
$INDEXCTL
280
     0
  9
$HIDETEXT
280
     1
  9
$XCLIPFRAME
280
     2
  9
$HALOGAP
280
     0
  9
$OBSCOLOR
 70
   257
  9
$OBSLTYPE
280
     0
  9
$INTERSECTIONDISPLAY
280
     0
  9
$INTERSECTIONCOLOR
 70
   257
  9
$DIMASSOC
280
     2
  9
$PROJECTNAME
  1

  9
$CAMERADISPLAY
290
     0
  9
$LENSLENGTH
 40
50.0
  9
$CAMERAHEIGHT
 40
0.0
  9
$STEPSPERSEC
 40
2.0
  9
$STEPSIZE
 40
6.0
  9
$3DDWFPREC
 40
2.0
  9
$PSOLWIDTH
 40
0.25
  9
$PSOLHEIGHT
 40
4.0
  9
$LOFTANG1
 40
1.570796326794897
  9
$LOFTANG2
 40
1.570796326794897
  9
$LOFTMAG1
 40
0.0
  9
$LOFTMAG2
 40
0.0
  9
$LOFTPARAM
 70
     7
  9
$LOFTNORMALS
280
     1
  9
$LATITUDE
 40
37.795
  9
$LONGITUDE
 40
-122.394
  9
$NORTHDIRECTION
 40
0.0
  9
$TIMEZONE
 70
 -8000
  9
$LIGHTGLYPHDISPLAY
280
     1
  9
$TILEMODELIGHTSYNCH
280
     1
  9
$SOLIDHIST
280
     1
  9
$SHOWHIST
280
     1
  9
$DWFFRAME
280
     2
  9
$DGNFRAME
280
     2
  9
$REALWORLDSCALE
290
     1
  9
$INTERFERECOLOR
 62
   256
  9
$CSHADOW
280
     0
  9
$SHADOWPLANELOCATION
 40
0.0
  0
ENDSEC
  0
SECTION
  2
CLASSES
  0
CLASS
  1
SCALE
  2
AcDbScale
  3
ObjectDBX Classes
 90
     1153
 91
        4
280
     0
281
     0
  0
CLASS
  1
MATERIAL
  2
AcDbMaterial
  3
ObjectDBX Classes
 90
     1153
 91
        4
280
     0
281
     0
  0
CLASS
  1
VISUALSTYLE
  2
AcDbVisualStyle
  3
ObjectDBX Classes
 90
     4095
 91
        4
280
     0
281
     0
  0
CLASS
  1
TABLESTYLE
  2
AcDbTableStyle
  3
ObjectDBX Classes
 90
     4095
 91
        4
280
     0
281
     0
  0
CLASS
  1
RASTERVARIABLES
  2
AcDbRasterVariables
  3
ISM
 90
        0
 91
        4
280
     0
281
     0
  0
CLASS
  1
ACDBDICTIONARYWDFLT
  2
AcDbDictionaryWithDefault
  3
ObjectDBX Classes
 90
        0
 91
        4
280
     0
281
     0
  0
CLASS
  1
DICTIONARYVAR
  2
AcDbDictionaryVar
  3
ObjectDBX Classes
 90
        0
 91
        4
280
     0
281
     0
  0
CLASS
  1
CELLSTYLEMAP
  2
AcDbCellStyleMap
  3
ObjectDBX Classes
 90
     1152
 91
        4
280
     0
281
     0
  0
CLASS
  1
DIMASSOC
  2
AcDbDimAssoc
  3
"AcDbDimAssoc|Product Desc:     AcDim ARX App For Dimension|Company:          Autodesk, Inc.|WEB Address:      www.autodesk.com"
 90
        0
 91
        4
280
     0
281
     0
  0
ENDSEC
  0
SECTION
  2
TABLES
  0
TABLE
  2
VPORT
  5
8
330
0
100
AcDbSymbolTable
 70
     1
  0
VPORT
  5
2E
330
8
100
AcDbSymbolTableRecord
100
AcDbViewportTableRecord
  2
*ACTIVE
 70
     0
 10
0.0
 20
0.0
 11
1.0
 21
1.0
 12
292.4471842091531
 22
-20.52987297045024
 13
0.0
 23
0.0
 14
10.0
 24
10.0
 15
10.0
 25
10.0
 16
0.0
 26
0.0
 36
1.0
 17
0.0
 27
0.0
 37
0.0
 40
974.5699266548623
 41
2.294919454770756
 42
50.0
 43
0.0
 44
0.0
 50
0.0
 51
0.0
 71
    16
 72
   100
 73
     1
 74
     3
 75
     0
 76
     0
 77
     0
 78
     0
281
     0
 65
     1
110
0.0
120
0.0
130
0.0
111
1.0
121
0.0
131
0.0
112
0.0
122
1.0
132
0.0
 79
     0
146
0.0
 60
     3
 61
     5
292
     1
282
     1
141
0.0
142
0.0
 63
   256
  0
ENDTAB
  0
TABLE
  2
LTYPE
  5
5
330
0
100
AcDbSymbolTable
 70
     1
  0
LTYPE
  5
14
330
5
100
AcDbSymbolTableRecord
100
AcDbLinetypeTableRecord
  2
BYBLOCK
 70
     0
  3

 72
    65
 73
     0
 40
0.0
  0
LTYPE
  5
15
330
5
100
AcDbSymbolTableRecord
100
AcDbLinetypeTableRecord
  2
BYLAYER
 70
     0
  3

 72
    65
 73
     0
 40
0.0
  0
LTYPE
  5
16
330
5
100
AcDbSymbolTableRecord
100
AcDbLinetypeTableRecord
  2
CONTINUOUS
 70
     0
  3
Solid line
 72
    65
 73
     0
 40
0.0
  0
ENDTAB
  0
TABLE
  2
LAYER
  5
2
102
{ACAD_XDICTIONARY
360
1003D
102
}
330
0
100
AcDbSymbolTable
 70
     4
  0
LAYER
  5
50
330
2
100
AcDbSymbolTableRecord
100
AcDbLayerTableRecord
  2
0
 70
     0
 62
     7
  6
CONTINUOUS
370
    -3
390
10043
347
10027
  0
LAYER
  5
51
330
2
100
AcDbSymbolTableRecord
100
AcDbLayerTableRecord
  2
MRC_P_51_Mustang
 70
     0
 62
     7
  6
CONTINUOUS
370
    -3
390
10043
347
10027
  0
LAYER
  5
10040
330
2
100
AcDbSymbolTableRecord
100
AcDbLayerTableRecord
  2
Marks
 70
     0
 62
     3
  6
CONTINUOUS
370
    -3
390
10043
347
10027
1001
AcAecLayerStandard
1000

1000

  0
LAYER
  5
10055
330
2
100
AcDbSymbolTableRecord
100
AcDbLayerTableRecord
  2
Defpoints
 70
     0
 62
     7
  6
CONTINUOUS
290
     0
370
    -3
390
10043
347
10027
  0
ENDTAB
  0
TABLE
  2
STYLE
  5
3
330
0
100
AcDbSymbolTable
 70
     1
  0
STYLE
  5
11
330
3
100
AcDbSymbolTableRecord
100
AcDbTextStyleTableRecord
  2
STANDARD
 70
     0
 40
0.0
 41
1.0
 50
0.0
 71
     0
 42
2.5
  3
txt
  4

  0
ENDTAB
  0
TABLE
  2
VIEW
  5
6
330
0
100
AcDbSymbolTable
 70
     0
  0
ENDTAB
  0
TABLE
  2
UCS
  5
7
330
0
100
AcDbSymbolTable
 70
     0
  0
ENDTAB
  0
TABLE
  2
APPID
  5
9
330
0
100
AcDbSymbolTable
 70
     2
  0
APPID
  5
12
330
9
100
AcDbSymbolTableRecord
100
AcDbRegAppTableRecord
  2
ACAD
 70
     0
  0
APPID
  5
10044
330
9
100
AcDbSymbolTableRecord
100
AcDbRegAppTableRecord
  2
AcAecLayerStandard
 70
     0
  0
ENDTAB
  0
TABLE
  2
DIMSTYLE
  5
A
330
0
100
AcDbSymbolTable
 70
     1
100
AcDbDimStyleTable
  0
DIMSTYLE
105
27
330
A
100
AcDbSymbolTableRecord
100
AcDbDimStyleTableRecord
  2
ISO-25
 70
     0
 41
2.5
 42
0.625
 43
3.75
 44
1.25
 73
     0
 74
     0
 77
     1
 78
     8
140
2.5
141
2.5
143
0.03937007874016
147
0.625
171
     3
172
     1
178
     0
271
     2
272
     2
274
     3
283
     0
284
     8
340
11
  0
ENDTAB
  0
TABLE
  2
BLOCK_RECORD
  5
1
330
0
100
AcDbSymbolTable
 70
     2
  0
BLOCK_RECORD
  5
1F
330
1
100
AcDbSymbolTableRecord
100
AcDbBlockTableRecord
  2
*MODEL_SPACE
340
10000
 70
     0
280
     1
281
     0
  0
BLOCK_RECORD
  5
1B
330
1
100
AcDbSymbolTableRecord
100
AcDbBlockTableRecord
  2
*PAPER_SPACE
340
10001
 70
     0
280
     1
281
     0
  0
BLOCK_RECORD
  5
1007E
330
1
100
AcDbSymbolTableRecord
100
AcDbBlockTableRecord
  2
*D0
340
0
 70
     0
280
     1
281
     0
  0
BLOCK_RECORD
  5
1008E
330
1
100
AcDbSymbolTableRecord
100
AcDbBlockTableRecord
  2
*D1
340
0
 70
     0
280
     1
281
     0
  0
ENDTAB
  0
ENDSEC
  0
SECTION
  2
BLOCKS
  0
BLOCK
  5
20
330
1F
100
AcDbEntity
  8
0
100
AcDbBlockBegin
  2
*MODEL_SPACE
 70
     0
 10
0.0
 20
0.0
 30
0.0
  3
*MODEL_SPACE
  1

  0
ENDBLK
  5
21
330
1F
100
AcDbEntity
  8
0
100
AcDbBlockEnd
  0
BLOCK
  5
1C
330
1B
100
AcDbEntity
 67
     1
  8
0
100
AcDbBlockBegin
  2
*PAPER_SPACE
 70
     0
 10
0.0
 20
0.0
 30
0.0
  3
*PAPER_SPACE
  1

  0
ENDBLK
  5
1D
330
1B
100
AcDbEntity
 67
     1
  8
0
100
AcDbBlockEnd
  0
BLOCK
  5
10089
330
1007E
100
AcDbEntity
  8
0
100
AcDbBlockBegin
  2
*D0
 70
     1
 10
0.0
 20
0.0
 30
0.0
  3
*D0
  1

  0
ARC
  5
1007F
330
1007E
100
AcDbEntity
  8
0
  6
ByBlock
 62
     0
370
    -2
100
AcDbCircle
 10
454.25142846891
 20
-334.438625
 30
0.0
 40
27.38557475948926
100
AcDbArc
 50
85.39971813502183
 51
131.9512575190799
  0
ARC
  5
10080
330
1007E
100
AcDbEntity
  8
0
  6
ByBlock
 62
     0
370
    -2
100
AcDbCircle
 10
454.25142846891
 20
-334.438625
 30
0.0
 40
27.38557475948926
100
AcDbArc
 50
133.0659513845677
 51
179.6234054253892
  0
SOLID
  5
10081
330
1007E
100
AcDbEntity
  8
0
 62
     0
100
AcDbTrace
 10
456.4453520190493
 20
-307.1711685958639
 30
0.0
 11
456.4503607716108
 21
-307.1113780247196
 31
0.0
 12
456.6272281087633
 22
-307.1562995679763
 32
0.0
 13
456.6272281087633
 23
-307.1562995679763
 33
0.0
  0
SOLID
  5
10082
330
1007E
100
AcDbEntity
  8
0
 62
     0
100
AcDbTrace
 10
426.8364454237373
 20
-334.2585273799903
 30
0.0
 11
426.8964450997234
 21
-334.2587245640935
 31
0.0
 12
426.8658537094207
 22
-334.438625
 32
0.0
 13
426.8658537094207
 23
-334.438625
 33
0.0
  0
MTEXT
  5
10083
330
1007E
100
AcDbEntity
  8
0
  6
ByBlock
 62
     0
100
AcDbMText
 10
435.7459283911385
 20
-314.2515952090878
 30
0.0
 40
0.18
 41
0.0
 46
0.0
 71
     5
 72
     1
  1
\A1;95%%d
 73
     1
 44
1.0
  0
POINT
  5
10084
330
1007E
100
AcDbEntity
  8
Defpoints
 62
     0
100
AcDbPoint
 10
441.9542209292342
 20
-309.9692892584292
 30
0.0
  0
POINT
  5
10085
330
1007E
100
AcDbEntity
  8
Defpoints
 62
     0
100
AcDbPoint
 10
479.970394
 20
-334.438625
 30
0.0
  0
POINT
  5
10086
330
1007E
100
AcDbEntity
  8
Defpoints
 62
     0
100
AcDbPoint
 10
457.482928
 20
-297.329931
 30
0.0
  0
POINT
  5
10087
330
1007E
100
AcDbEntity
  8
Defpoints
 62
     0
100
AcDbPoint
 10
454.789469
 20
-328.260075
 30
0.0
  0
POINT
  5
10088
330
1007E
100
AcDbEntity
  8
Defpoints
 62
     0
100
AcDbPoint
 10
420.0552260636008
 20
-334.438625
 30
0.0
  0
ENDBLK
  5
1008A
330
1007E
100
AcDbEntity
  8
0
100
AcDbBlockEnd
  0
BLOCK
  5
10099
330
1008E
100
AcDbEntity
  8
0
100
AcDbBlockBegin
  2
*D1
 70
     1
 10
0.0
 20
0.0
 30
0.0
  3
*D1
  1

  0
ARC
  5
1008F
330
1008E
100
AcDbEntity
  8
0
  6
ByBlock
 62
     0
370
    -2
100
AcDbCircle
 10
454.25142846891
 20
-334.438625
 30
0.0
 40
16.62450259485697
100
AcDbArc
 50
0.6203668729992613
 51
41.67554227781185
  0
ARC
  5
10090
330
1008E
100
AcDbEntity
  8
0
  6
ByBlock
 62
     0
370
    -2
100
AcDbCircle
 10
454.25142846891
 20
-334.438625
 30
0.0
 40
16.62450259485697
100
AcDbArc
 50
43.35891745286931
 51
84.40275668741171
  0
SOLID
  5
10091
330
1008E
100
AcDbEntity
  8
0
 62
     0
100
AcDbTrace
 10
470.8449570381463
 20
-334.2587900486228
 30
0.0
 11
470.9049561588968
 21
-334.2584652268743
 31
0.0
 12
470.8759310637669
 22
-334.438625
 32
0.0
 13
470.8759310637669
 23
-334.438625
 33
0.0
  0
SOLID
  5
10092
330
1008E
100
AcDbEntity
  8
0
 62
     0
100
AcDbTrace
 10
455.8756639665754
 20
-317.8635141070637
 30
0.0
 11
455.8701352244019
 21
-317.9232588391325
 31
0.0
 12
455.6936653992821
 22
-317.8768002465775
 32
0.0
 13
455.6936653992821
 23
-317.8768002465775
 33
0.0
  0
MTEXT
  5
10093
330
1008E
100
AcDbEntity
  8
0
  6
ByBlock
 62
     0
100
AcDbMText
 10
466.5060308312426
 20
-323.2048007416489
 30
0.0
 40
0.18
 41
0.0
 46
0.0
 71
     5
 72
     1
  1
\A1;85%%d
 73
     1
 44
1.0
  0
POINT
  5
10094
330
1008E
100
AcDbEntity
  8
Defpoints
 62
     0
100
AcDbPoint
 10
468.8832772274811
 20
-326.5466614653207
 30
0.0
  0
POINT
  5
10095
330
1008E
100
AcDbEntity
  8
Defpoints
 62
     0
100
AcDbPoint
 10
479.970394
 20
-334.438625
 30
0.0
  0
POINT
  5
10096
330
1008E
100
AcDbEntity
  8
Defpoints
 62
     0
100
AcDbPoint
 10
457.482928
 20
-297.329931
 30
0.0
  0
POINT
  5
10097
330
1008E
100
AcDbEntity
  8
Defpoints
 62
     0
100
AcDbPoint
 10
454.789469
 20
-328.260075
 30
0.0
  0
POINT
  5
10098
330
1008E
100
AcDbEntity
  8
Defpoints
 62
     0
100
AcDbPoint
 10
420.0552260636008
 20
-334.438625
 30
0.0
  0
ENDBLK
  5
1009A
330
1008E
100
AcDbEntity
  8
0
100
AcDbBlockEnd
  0
ENDSEC
  0
SECTION
  2
ENTITIES
  0
LINE
  5
100
330
1F
100
AcDbEntity
  8
0
100
AcDbLine
 10
172.687177
 20
-18.27134
 30
0.0
 11
195.086111
 21
-18.53838180781345
 31
0.0
  0
LINE
  5
101
330
1F
100
AcDbEntity
  8
0
100
AcDbLine
 10
420.29144
 20
-21.223297
 30
0.0
 11
420.233342
 21
-26.191197
 31
0.0
  0
LINE
  5
102
330
1F
100
AcDbEntity
  8
0
100
AcDbLine
 10
420.233342
 20
-26.191197
 30
0.0
 11
172.629079
 21
-23.23924
 31
0.0
  0
LINE
  5
103
330
1F
100
AcDbEntity
  8
0
100
AcDbLine
 10
172.629079
 20
-23.23924
 30
0.0
 11
172.687177
 21
-18.27134
 31
0.0
  0
LINE
  5
104
330
1F
100
AcDbEntity
  8
0
100
AcDbLine
 10
509.367014
 20
-84.843056
 30
0.0
 11
509.440392
 21
-334.389589
 31
0.0
  0
LINE
  5
105
330
1F
100
AcDbEntity
  8
0
100
AcDbLine
 10
509.440392
 20
-334.389589
 30
0.0
 11
479.970394
 21
-334.438625
 31
0.0
  0
LINE
  5
106
330
1F
100
AcDbEntity
  8
0
100
AcDbLine
 10
479.970394
 20
-334.438625
 30
0.0
 11
455.321811
 21
-328.489028
 31
0.0
  0
LINE
  5
107
330
1F
100
AcDbEntity
  8
0
100
AcDbLine
 10
455.321811
 20
-328.489028
 30
0.0
 11
39.749589
 21
-246.880239
 31
0.0
  0
LINE
  5
108
330
1F
100
AcDbEntity
  8
0
100
AcDbLine
 10
39.749589
 20
-246.880239
 30
0.0
 11
36.927367
 21
-245.939028
 31
0.0
  0
SPLINE
  5
109
330
1F
100
AcDbEntity
  8
0
100
AcDbSpline
210
0.0
220
0.0
230
1.0
 70
     8
 71
     3
 72
     8
 73
     4
 74
     0
 42
0.0000001
 43
0.0000001
 40
0.0
 40
0.0
 40
0.0
 40
0.0
 40
1.0
 40
1.0
 40
1.0
 40
1.0
 10
36.927367
 20
-245.939028
 30
0.0
 10
36.927367
 20
-245.939028
 30
0.0
 10
18.347619
 20
-142.223067
 30
0.0
 10
45.330533
 20
-135.356953
 30
0.0
  0
SPLINE
  5
10A
330
1F
100
AcDbEntity
  8
0
100
AcDbSpline
210
0.0
220
0.0
230
1.0
 70
     8
 71
     3
 72
     8
 73
     4
 74
     0
 42
0.0000001
 43
0.0000001
 40
0.0
 40
0.0
 40
0.0
 40
0.0
 40
1.0
 40
1.0
 40
1.0
 40
1.0
 10
45.330533
 20
-135.356953
 30
0.0
 10
46.452367
 20
-135.343194
 30
0.0
 10
45.526325
 20
-135.346722
 30
0.0
 10
45.526325
 20
-135.346722
 30
0.0
  0
LINE
  5
10B
330
1F
100
AcDbEntity
  8
0
100
AcDbLine
 10
45.526325
 20
-135.346722
 30
0.0
 11
381.8636
 21
-118.424325
 31
0.0
  0
LINE
  5
10C
330
1F
100
AcDbEntity
  8
0
100
AcDbLine
 10
381.8636
 20
-118.424325
 30
0.0
 11
384.509786
 21
-118.424325
 31
0.0
  0
LINE
  5
10D
330
1F
100
AcDbEntity
  8
0
100
AcDbLine
 10
384.509786
 20
-118.424325
 30
0.0
 11
494.991319
 21
-85.0646
 31
0.0
  0
LINE
  5
10E
330
1F
100
AcDbEntity
  8
0
100
AcDbLine
 10
494.991319
 20
-85.0646
 30
0.0
 11
509.396294
 21
-85.107639
 31
0.0
  0
LINE
  5
10F
330
1F
100
AcDbEntity
  8
Marks
100
AcDbLine
 10
852.575694
 20
-1.881717
 30
0.0
 11
852.531597
 21
-86.077778
 31
0.0
  0
LINE
  5
110
330
1F
100
AcDbEntity
  8
0
100
AcDbLine
 10
852.575694
 20
-1.646414
 30
0.0
 11
697.118522
 21
-30.574192
 31
0.0
  0
SPLINE
  5
111
330
1F
100
AcDbEntity
  8
0
100
AcDbSpline
210
0.0
220
0.0
230
1.0
 70
     8
 71
     3
 72
     8
 73
     4
 74
     0
 42
0.0000001
 43
0.0000001
 40
0.0
 40
0.0
 40
0.0
 40
0.0
 40
1.0
 40
1.0
 40
1.0
 40
1.0
 10
697.118522
 20
-30.574192
 30
0.0
 10
697.118522
 20
-30.574192
 30
0.0
 10
695.236806
 20
-30.809847
 30
0.0
 10
691.943978
 20
-32.455908
 30
0.0
  0
SPLINE
  5
112
330
1F
100
AcDbEntity
  8
0
100
AcDbSpline
210
0.0
220
0.0
230
1.0
 70
     8
 71
     3
 72
     8
 73
     4
 74
     0
 42
0.0000001
 43
0.0000001
 40
0.0
 40
0.0
 40
0.0
 40
0.0
 40
1.0
 40
1.0
 40
1.0
 40
1.0
 10
691.943978
 20
-32.455908
 30
0.0
 10
688.651856
 20
-34.101969
 30
0.0
 10
680.185189
 20
-40.451969
 30
0.0
 10
677.597917
 20
-49.036111
 30
0.0
  0
SPLINE
  5
113
330
1F
100
AcDbEntity
  8
0
100
AcDbSpline
210
0.0
220
0.0
230
1.0
 70
     8
 71
     3
 72
     8
 73
     4
 74
     0
 42
0.0000001
 43
0.0000001
 40
0.0
 40
0.0
 40
0.0
 40
0.0
 40
1.0
 40
1.0
 40
1.0
 40
1.0
 10
677.597917
 20
-49.036111
 30
0.0
 10
677.362967
 20
-52.211464
 30
0.0
 10
680.420139
 20
-94.544444
 30
0.0
 10
680.420139
 20
-94.544444
 30
0.0
  0
SPLINE
  5
114
330
1F
100
AcDbEntity
  8
0
100
AcDbSpline
210
0.0
220
0.0
230
1.0
 70
     8
 71
     3
 72
     8
 73
     4
 74
     0
 42
0.0000001
 43
0.0000001
 40
0.0
 40
0.0
 40
0.0
 40
0.0
 40
1.0
 40
1.0
 40
1.0
 40
1.0
 10
680.420139
 20
-94.544444
 30
0.0
 10
680.420139
 20
-94.544444
 30
0.0
 10
681.83125
 20
-96.190506
 30
0.0
 10
683.947917
 20
-96.661111
 30
0.0
  0
SPLINE
  5
115
330
1F
100
AcDbEntity
  8
0
100
AcDbSpline
210
0.0
220
0.0
230
1.0
 70
     8
 71
     3
 72
     8
 73
     4
 74
     0
 42
0.0000001
 43
0.0000001
 40
0.0
 40
0.0
 40
0.0
 40
0.0
 40
1.0
 40
1.0
 40
1.0
 40
1.0
 10
683.947917
 20
-96.661111
 30
0.0
 10
686.064583
 20
-97.131717
 30
0.0
 10
834.084494
 20
-110.125581
 30
0.0
 10
834.084494
 20
-110.125581
 30
0.0
  0
LINE
  5
116
330
1F
100
AcDbEntity
  8
0
100
AcDbLine
 10
29.27985
 20
0.084667
 30
0.0
 11
30.690961
 21
-11.380611
 31
0.0
  0
SPLINE
  5
117
330
1F
100
AcDbEntity
  8
0
100
AcDbSpline
210
0.0
220
0.0
230
1.0
 70
     8
 71
     3
 72
     8
 73
     4
 74
     0
 42
0.0000001
 43
0.0000001
 40
0.0
 40
0.0
 40
0.0
 40
0.0
 40
1.0
 40
1.0
 40
1.0
 40
1.0
 10
30.690961
 20
-11.380611
 30
0.0
 10
30.690961
 20
-11.380611
 30
0.0
 10
30.573133
 20
-11.086747
 30
0.0
 10
31.572906
 20
-13.320889
 30
0.0
  0
SPLINE
  5
118
330
1F
100
AcDbEntity
  8
0
100
AcDbSpline
210
0.0
220
0.0
230
1.0
 70
     8
 71
     3
 72
     8
 73
     4
 74
     0
 42
0.0000001
 43
0.0000001
 40
0.0
 40
0.0
 40
0.0
 40
0.0
 40
1.0
 40
1.0
 40
1.0
 40
1.0
 10
31.572906
 20
-13.320889
 30
0.0
 10
59.618739
 20
-36.721697
 30
0.0
 10
206.374294
 20
-41.190333
 30
0.0
 10
206.374294
 20
-41.190333
 30
0.0
  0
SPLINE
  5
119
330
1F
100
AcDbEntity
  8
0
100
AcDbSpline
210
0.0
220
0.0
230
1.0
 70
     8
 71
     3
 72
     8
 73
     4
 74
     0
 42
0.0000001
 43
0.0000001
 40
0.0
 40
0.0
 40
0.0
 40
0.0
 40
1.0
 40
1.0
 40
1.0
 40
1.0
 10
206.374294
 20
-41.190333
 30
0.0
 10
206.374294
 20
-41.190333
 30
0.0
 10
286.807628
 20
-42.601444
 30
0.0
 10
327.024294
 20
-36.604222
 30
0.0
  0
SPLINE
  5
11A
330
1F
100
AcDbEntity
  8
0
100
AcDbSpline
210
0.0
220
0.0
230
1.0
 70
     8
 71
     3
 72
     8
 73
     4
 74
     0
 42
0.0000001
 43
0.0000001
 40
0.0
 40
0.0
 40
0.0
 40
0.0
 40
1.0
 40
1.0
 40
1.0
 40
1.0
 10
327.024294
 20
-36.604222
 30
0.0
 10
327.72985
 20
-36.957
 30
0.0
 10
329.493739
 20
-40.484778
 30
0.0
 10
329.493739
 20
-40.484778
 30
0.0
  0
LINE
  5
11B
330
1F
100
AcDbEntity
  8
0
100
AcDbLine
 10
329.493739
 20
-40.484778
 30
0.0
 11
311.149294
 21
-44.718111
 31
0.0
  0
LINE
  5
11C
330
1F
100
AcDbEntity
  8
0
100
AcDbLine
 10
311.149294
 20
-44.718111
 30
0.0
 11
310.796517
 21
-47.893111
 31
0.0
  0
LINE
  5
11D
330
1F
100
AcDbEntity
  8
0
100
AcDbLine
 10
310.796517
 20
-47.893111
 30
0.0
 11
325.613183
 21
-64.120889
 31
0.0
  0
SPLINE
  5
11E
330
1F
100
AcDbEntity
  8
0
100
AcDbSpline
210
0.0
220
0.0
230
1.0
 70
     8
 71
     3
 72
     8
 73
     4
 74
     0
 42
0.0000001
 43
0.0000001
 40
0.0
 40
0.0
 40
0.0
 40
0.0
 40
1.0
 40
1.0
 40
1.0
 40
1.0
 10
325.613183
 20
-64.120889
 30
0.0
 10
325.613183
 20
-64.120889
 30
0.0
 10
326.318739
 20
-64.473667
 30
0.0
 10
327.72985
 20
-64.826444
 30
0.0
  0
SPLINE
  5
11F
330
1F
100
AcDbEntity
  8
0
100
AcDbSpline
210
0.0
220
0.0
230
1.0
 70
     8
 71
     3
 72
     8
 73
     4
 74
     0
 42
0.0000001
 43
0.0000001
 40
0.0
 40
0.0
 40
0.0
 40
0.0
 40
1.0
 40
1.0
 40
1.0
 40
1.0
 10
327.72985
 20
-64.826444
 30
0.0
 10
466.959597
 20
-66.825636
 30
0.0
 10
527.754497
 20
-13.320889
 30
0.0
 10
527.754497
 20
-13.320889
 30
0.0
  0
SPLINE
  5
120
330
1F
100
AcDbEntity
  8
0
100
AcDbSpline
210
0.0
220
0.0
230
1.0
 70
     8
 71
     3
 72
     8
 73
     4
 74
     0
 42
0.0000001
 43
0.0000001
 40
0.0
 40
0.0
 40
0.0
 40
0.0
 40
1.0
 40
1.0
 40
1.0
 40
1.0
 10
527.754497
 20
-13.320889
 30
0.0
 10
527.754497
 20
-13.320889
 30
0.0
 10
528.578586
 20
-13.203414
 30
0.0
 10
529.988992
 20
-12.968111
 30
0.0
  0
SPLINE
  5
121
330
1F
100
AcDbEntity
  8
0
100
AcDbSpline
210
0.0
220
0.0
230
1.0
 70
     8
 71
     3
 72
     8
 73
     4
 74
     0
 42
0.0000001
 43
0.0000001
 40
0.0
 40
0.0
 40
0.0
 40
0.0
 40
1.0
 40
1.0
 40
1.0
 40
1.0
 10
529.988992
 20
-12.968111
 30
0.0
 10
663.574294
 20
3.612444
 30
0.0
 10
753.532628
 20
24.073556
 30
0.0
 10
753.532628
 20
24.073556
 30
0.0
  0
SPLINE
  5
122
330
1F
100
AcDbEntity
  8
0
100
AcDbSpline
210
0.0
220
0.0
230
1.0
 70
     8
 71
     3
 72
     8
 73
     4
 74
     0
 42
0.0000001
 43
0.0000001
 40
0.0
 40
0.0
 40
0.0
 40
0.0
 40
1.0
 40
1.0
 40
1.0
 40
1.0
 10
753.532628
 20
24.073556
 30
0.0
 10
753.532628
 20
24.073556
 30
0.0
 10
771.171517
 20
26.366611
 30
0.0
 10
777.168739
 20
51.590222
 30
0.0
  0
SPLINE
  5
123
330
1F
100
AcDbEntity
  8
0
100
AcDbSpline
210
0.0
220
0.0
230
1.0
 70
     8
 71
     3
 72
     8
 73
     4
 74
     0
 42
0.0000001
 43
0.0000001
 40
0.0
 40
0.0
 40
0.0
 40
0.0
 40
1.0
 40
1.0
 40
1.0
 40
1.0
 10
777.168739
 20
51.590222
 30
0.0
 10
777.874294
 20
56.352722
 30
0.0
 10
767.056011
 20
118.029919
 30
0.0
 10
752.121517
 20
182.118
 30
0.0
  0
SPLINE
  5
124
330
1F
100
AcDbEntity
  8
0
100
AcDbSpline
210
0.0
220
0.0
230
1.0
 70
     8
 71
     3
 72
     8
 73
     4
 74
     0
 42
0.0000001
 43
0.0000001
 40
0.0
 40
0.0
 40
0.0
 40
0.0
 40
1.0
 40
1.0
 40
1.0
 40
1.0
 10
752.121517
 20
182.118
 30
0.0
 10
749.887022
 20
182.470778
 30
0.0
 10
701.909244
 20
182.470778
 30
0.0
 10
699.910406
 20
182.470778
 30
0.0
  0
SPLINE
  5
125
330
1F
100
AcDbEntity
  8
0
100
AcDbSpline
210
0.0
220
0.0
230
1.0
 70
     8
 71
     3
 72
     8
 73
     4
 74
     0
 42
0.0000001
 43
0.0000001
 40
0.0
 40
0.0
 40
0.0
 40
0.0
 40
1.0
 40
1.0
 40
1.0
 40
1.0
 10
699.910406
 20
182.470778
 30
0.0
 10
696.02985
 20
182.000525
 30
0.0
 10
693.913183
 20
178.943
 30
0.0
 10
693.913183
 20
178.943
 30
0.0
  0
SPLINE
  5
126
330
1F
100
AcDbEntity
  8
0
100
AcDbSpline
210
0.0
220
0.0
230
1.0
 70
     8
 71
     3
 72
     8
 73
     4
 74
     0
 42
0.0000001
 43
0.0000001
 40
0.0
 40
0.0
 40
0.0
 40
0.0
 40
1.0
 40
1.0
 40
1.0
 40
1.0
 10
693.913183
 20
178.943
 30
0.0
 10
693.913183
 20
178.943
 30
0.0
 10
648.821833
 20
94.325369
 30
0.0
 10
648.64615
 20
93.981058
 30
0.0
  0
SPLINE
  5
127
330
1F
100
AcDbEntity
  8
0
100
AcDbSpline
210
0.0
220
0.0
230
1.0
 70
     8
 71
     3
 72
     8
 73
     4
 74
     0
 42
0.0000001
 43
0.0000001
 40
0.0
 40
0.0
 40
0.0
 40
0.0
 40
1.0
 40
1.0
 40
1.0
 40
1.0
 10
648.64615
 20
93.981058
 30
0.0
 10
648.228461
 20
93.129806
 30
0.0
 10
646.925653
 20
92.632036
 30
0.0
 10
646.925653
 20
92.632036
 30
0.0
  0
LINE
  5
128
330
1F
100
AcDbEntity
  8
0
100
AcDbLine
 10
646.925653
 20
92.632036
 30
0.0
 11
562.965953
 21
75.225628
 31
0.0
  0
LINE
  5
129
330
1F
100
AcDbEntity
  8
0
100
AcDbLine
 10
562.965953
 20
75.225628
 30
0.0
 11
559.680533
 21
74.948697
 31
0.0
  0
LINE
  5
12A
330
1F
100
AcDbEntity
  8
0
100
AcDbLine
 10
559.680533
 20
74.948697
 30
0.0
 11
434.268739
 21
80.870778
 31
0.0
  0
SPLINE
  5
12B
330
1F
100
AcDbEntity
  8
0
100
AcDbSpline
210
0.0
220
0.0
230
1.0
 70
     8
 71
     3
 72
     8
 73
     4
 74
     0
 42
0.0000001
 43
0.0000001
 40
0.0
 40
0.0
 40
0.0
 40
0.0
 40
1.0
 40
1.0
 40
1.0
 40
1.0
 10
434.268739
 20
80.870778
 30
0.0
 10
434.268739
 20
80.870778
 30
0.0
 10
434.268739
 20
81.576333
 30
0.0
 10
432.152072
 20
82.634667
 30
0.0
  0
SPLINE
  5
12C
330
1F
100
AcDbEntity
  8
0
100
AcDbSpline
210
0.0
220
0.0
230
1.0
 70
     8
 71
     3
 72
     8
 73
     4
 74
     0
 42
0.0000001
 43
0.0000001
 40
0.0
 40
0.0
 40
0.0
 40
0.0
 40
1.0
 40
1.0
 40
1.0
 40
1.0
 10
432.152072
 20
82.634667
 30
0.0
 10
301.271517
 20
150.015222
 30
0.0
 10
250.118739
 20
79.812444
 30
0.0
 10
250.118739
 20
79.812444
 30
0.0
  0
SPLINE
  5
12D
330
1F
100
AcDbEntity
  8
0
100
AcDbSpline
210
0.0
220
0.0
230
1.0
 70
     8
 71
     3
 72
     8
 73
     4
 74
     0
 42
0.0000001
 43
0.0000001
 40
0.0
 40
0.0
 40
0.0
 40
0.0
 40
1.0
 40
1.0
 40
1.0
 40
1.0
 10
250.118739
 20
79.812444
 30
0.0
 10
250.118739
 20
79.812444
 30
0.0
 10
250.824294
 20
79.459667
 30
0.0
 10
249.060406
 20
78.401333
 30
0.0
  0
SPLINE
  5
12E
330
1F
100
AcDbEntity
  8
0
100
AcDbSpline
210
0.0
220
0.0
230
1.0
 70
     8
 71
     3
 72
     8
 73
     4
 74
     0
 42
0.0000001
 43
0.0000001
 40
0.0
 40
0.0
 40
0.0
 40
0.0
 40
1.0
 40
1.0
 40
1.0
 40
1.0
 10
249.060406
 20
78.401333
 30
0.0
 10
89.252072
 20
77.695778
 30
0.0
 10
23.282628
 20
59.351333
 30
0.0
 10
23.282628
 20
59.351333
 30
0.0
  0
LINE
  5
12F
330
1F
100
AcDbEntity
  8
0
100
AcDbLine
 10
23.282628
 20
59.351333
 30
0.0
 11
24.055211
 21
2.704747
 31
0.0
  0
LINE
  5
130
330
1F
100
AcDbEntity
  8
0
100
AcDbLine
 10
24.055211
 20
2.704747
 30
0.0
 11
29.27985
 21
0.084667
 31
0.0
  0
LINE
  5
131
330
1F
100
AcDbEntity
  8
0
100
AcDbLine
 10
29.27985
 20
0.084667
 30
0.0
 11
29.27985
 21
0.084667
 31
0.0
  0
LINE
  5
132
330
1F
100
AcDbEntity
  8
0
100
AcDbLine
 10
1026.348383
 20
-78.081717
 30
0.0
 11
679.21505
 21
-78.081717
 31
0.0
  0
LINE
  5
133
330
1F
100
AcDbEntity
  8
0
100
AcDbLine
 10
51.020486
 20
-249.105208
 30
0.0
 11
53.669847
 21
-218.307708
 31
0.0
  0
LINE
  5
134
330
1F
100
AcDbEntity
  8
0
100
AcDbLine
 10
53.669847
 20
-218.307708
 30
0.0
 11
457.482928
 21
-297.329931
 31
0.0
  0
LINE
  5
135
330
1F
100
AcDbEntity
  8
0
100
AcDbLine
 10
457.482928
 20
-297.329931
 30
0.0
 11
454.789469
 21
-328.260075
 31
0.0
  0
LINE
  5
136
330
1F
100
AcDbEntity
  8
Marks
100
AcDbLine
 10
368.123611
 20
-150.283333
 30
0.0
 11
382.763889
 21
-161.043056
 31
0.0
  0
LINE
  5
137
330
1F
100
AcDbEntity
  8
Marks
100
AcDbLine
 10
383.116667
 20
-148.872222
 30
0.0
 11
367.065278
 21
-161.748611
 31
0.0
  0
LINE
  5
138
330
1F
100
AcDbEntity
  8
Marks
100
AcDbLine
 10
509.352197
 20
-164.512272
 30
0.0
 11
420.452197
 21
-164.512272
 31
0.0
  0
LINE
  5
139
330
1F
100
AcDbEntity
  8
Marks
100
AcDbLine
 10
509.411111
 20
-169.421528
 30
0.0
 11
420.511111
 21
-169.421528
 31
0.0
  0
LINE
  5
13A
330
1F
100
AcDbEntity
  8
Marks
100
AcDbLine
 10
509.455914
 20
-84.843056
 30
0.0
 11
509.382183
 21
-334.389589
 31
0.0
  0
LINE
  5
13B
330
1F
100
AcDbEntity
  8
0
100
AcDbLine
 10
509.382183
 20
-334.389589
 30
0.0
 11
538.852181
 21
-334.438625
 31
0.0
  0
LINE
  5
13C
330
1F
100
AcDbEntity
  8
0
100
AcDbLine
 10
538.852181
 20
-334.438625
 30
0.0
 11
563.501117
 21
-328.489028
 31
0.0
  0
LINE
  5
13D
330
1F
100
AcDbEntity
  8
0
100
AcDbLine
 10
563.501117
 20
-328.489028
 30
0.0
 11
979.072986
 21
-246.880239
 31
0.0
  0
LINE
  5
13E
330
1F
100
AcDbEntity
  8
0
100
AcDbLine
 10
979.072986
 20
-246.880239
 30
0.0
 11
981.895208
 21
-245.939028
 31
0.0
  0
SPLINE
  5
13F
330
1F
100
AcDbEntity
  8
0
100
AcDbSpline
210
0.0
220
0.0
230
1.0
 70
     8
 71
     3
 72
     8
 73
     4
 74
     0
 42
0.0000001
 43
0.0000001
 40
0.0
 40
0.0
 40
0.0
 40
0.0
 40
1.0
 40
1.0
 40
1.0
 40
1.0
 10
981.895208
 20
-245.939028
 30
0.0
 10
981.895208
 20
-245.939028
 30
0.0
 10
1000.474956
 20
-142.223067
 30
0.0
 10
973.492394
 20
-135.356953
 30
0.0
  0
SPLINE
  5
140
330
1F
100
AcDbEntity
  8
0
100
AcDbSpline
210
0.0
220
0.0
230
1.0
 70
     8
 71
     3
 72
     8
 73
     4
 74
     0
 42
0.0000001
 43
0.0000001
 40
0.0
 40
0.0
 40
0.0
 40
0.0
 40
1.0
 40
1.0
 40
1.0
 40
1.0
 10
973.492394
 20
-135.356953
 30
0.0
 10
972.370208
 20
-135.343194
 30
0.0
 10
973.296603
 20
-135.346722
 30
0.0
 10
973.296603
 20
-135.346722
 30
0.0
  0
LINE
  5
141
330
1F
100
AcDbEntity
  8
0
100
AcDbLine
 10
973.296603
 20
-135.346722
 30
0.0
 11
636.959681
 21
-118.424325
 31
0.0
  0
LINE
  5
142
330
1F
100
AcDbEntity
  8
0
100
AcDbLine
 10
636.959681
 20
-118.424325
 30
0.0
 11
634.313142
 21
-118.424325
 31
0.0
  0
LINE
  5
143
330
1F
100
AcDbEntity
  8
0
100
AcDbLine
 10
634.313142
 20
-118.424325
 30
0.0
 11
523.831608
 21
-85.0646
 31
0.0
  0
LINE
  5
144
330
1F
100
AcDbEntity
  8
0
100
AcDbLine
 10
523.831608
 20
-85.0646
 30
0.0
 11
509.426281
 21
-85.107639
 31
0.0
  0
LINE
  5
145
330
1F
100
AcDbEntity
  8
0
100
AcDbLine
 10
967.802442
 20
-249.105208
 30
0.0
 11
965.153081
 21
-218.307708
 31
0.0
  0
LINE
  5
146
330
1F
100
AcDbEntity
  8
0
100
AcDbLine
 10
965.153081
 20
-218.307708
 30
0.0
 11
561.34
 21
-297.329931
 31
0.0
  0
LINE
  5
147
330
1F
100
AcDbEntity
  8
0
100
AcDbLine
 10
561.34
 20
-297.329931
 30
0.0
 11
564.033811
 21
-328.260075
 31
0.0
  0
LINE
  5
148
330
1F
100
AcDbEntity
  8
Marks
100
AcDbLine
 10
650.699317
 20
-150.283333
 30
0.0
 11
636.059039
 21
-161.043056
 31
0.0
  0
LINE
  5
149
330
1F
100
AcDbEntity
  8
Marks
100
AcDbLine
 10
635.706261
 20
-148.872222
 30
0.0
 11
651.75765
 21
-161.748611
 31
0.0
  0
LINE
  5
14A
330
1F
100
AcDbEntity
  8
Marks
100
AcDbLine
 10
509.470378
 20
-164.512272
 30
0.0
 11
598.370378
 21
-164.512272
 31
0.0
  0
LINE
  5
14B
330
1F
100
AcDbEntity
  8
Marks
100
AcDbLine
 10
509.411817
 20
-169.421528
 30
0.0
 11
598.311817
 21
-169.421528
 31
0.0
  0
LINE
  5
14C
330
1F
100
AcDbEntity
  8
0
100
AcDbLine
 10
195.086111
 20
-18.53838180781345
 30
0.0
 11
195.086111
 21
15.522222
 31
0.0
  0
LINE
  5
14D
330
1F
100
AcDbEntity
  8
0
100
AcDbLine
 10
195.086111
 20
15.522222
 30
0.0
 11
258.586111
 21
15.522222
 31
0.0
  0
LINE
  5
14E
330
1F
100
AcDbEntity
  8
0
100
AcDbLine
 10
258.586111
 20
15.522222
 30
0.0
 11
258.586111
 21
-19.29543367448507
 31
0.0
  0
LINE
  5
14F
330
1F
100
AcDbEntity
  8
0
100
AcDbLine
 10
598.675777
 20
61.237887
 30
0.0
 11
674.7288921510626
 21
61.237887
 31
0.0
  0
LINE
  5
151
330
1F
100
AcDbEntity
  8
0
100
AcDbLine
 10
675.3525528052377
 20
56.273095
 30
0.0
 11
598.675777
 21
56.273095
 31
0.0
  0
LINE
  5
152
330
1F
100
AcDbEntity
  8
0
100
AcDbLine
 10
598.675777
 20
56.273095
 30
0.0
 11
598.675777
 21
61.237887
 31
0.0
  0
LINE
  5
153
330
1F
100
AcDbEntity
  8
0
100
AcDbLine
 10
718.608333
 20
182.386111
 30
0.0
 11
720.960303
 21
17.168636
 31
0.0
  0
LINE
  5
154
330
1F
100
AcDbEntity
  8
0
100
AcDbLine
 10
852.899192
 20
-85.960303
 30
0.0
 11
846.901969
 21
-85.960303
 31
0.0
  0
LINE
  5
155
330
1F
100
AcDbEntity
  8
0
100
AcDbLine
 10
846.901969
 20
-85.960303
 30
0.0
 11
846.901969
 21
-108.185303
 31
0.0
  0
LINE
  5
156
330
1F
100
AcDbEntity
  8
0
100
AcDbLine
 10
846.901969
 20
-108.185303
 30
0.0
 11
833.967019
 21
-108.185303
 31
0.0
  0
LINE
  5
157
330
1F
100
AcDbEntity
  8
0
100
AcDbLine
 10
833.967019
 20
-108.185303
 30
0.0
 11
833.967019
 21
-110.0963
 31
0.0
  0
LINE
  5
158
330
1F
100
AcDbEntity
  8
0
100
AcDbLine
 10
852.729506
 20
-1.646414
 30
0.0
 11
1008.186678
 21
-30.574192
 31
0.0
  0
SPLINE
  5
159
330
1F
100
AcDbEntity
  8
0
100
AcDbSpline
210
0.0
220
0.0
230
1.0
 70
     8
 71
     3
 72
     8
 73
     4
 74
     0
 42
0.0000001
 43
0.0000001
 40
0.0
 40
0.0
 40
0.0
 40
0.0
 40
1.0
 40
1.0
 40
1.0
 40
1.0
 10
1008.186678
 20
-30.574192
 30
0.0
 10
1008.186678
 20
-30.574192
 30
0.0
 10
1010.068394
 20
-30.809847
 30
0.0
 10
1013.361222
 20
-32.455908
 30
0.0
  0
SPLINE
  5
15A
330
1F
100
AcDbEntity
  8
0
100
AcDbSpline
210
0.0
220
0.0
230
1.0
 70
     8
 71
     3
 72
     8
 73
     4
 74
     0
 42
0.0000001
 43
0.0000001
 40
0.0
 40
0.0
 40
0.0
 40
0.0
 40
1.0
 40
1.0
 40
1.0
 40
1.0
 10
1013.361222
 20
-32.455908
 30
0.0
 10
1016.653344
 20
-34.101969
 30
0.0
 10
1025.120011
 20
-40.451969
 30
0.0
 10
1027.707283
 20
-49.036111
 30
0.0
  0
SPLINE
  5
15B
330
1F
100
AcDbEntity
  8
0
100
AcDbSpline
210
0.0
220
0.0
230
1.0
 70
     8
 71
     3
 72
     8
 73
     4
 74
     0
 42
0.0000001
 43
0.0000001
 40
0.0
 40
0.0
 40
0.0
 40
0.0
 40
1.0
 40
1.0
 40
1.0
 40
1.0
 10
1027.707283
 20
-49.036111
 30
0.0
 10
1027.942233
 20
-52.211464
 30
0.0
 10
1024.885061
 20
-94.544444
 30
0.0
 10
1024.885061
 20
-94.544444
 30
0.0
  0
SPLINE
  5
15C
330
1F
100
AcDbEntity
  8
0
100
AcDbSpline
210
0.0
220
0.0
230
1.0
 70
     8
 71
     3
 72
     8
 73
     4
 74
     0
 42
0.0000001
 43
0.0000001
 40
0.0
 40
0.0
 40
0.0
 40
0.0
 40
1.0
 40
1.0
 40
1.0
 40
1.0
 10
1024.885061
 20
-94.544444
 30
0.0
 10
1024.885061
 20
-94.544444
 30
0.0
 10
1023.47395
 20
-96.190506
 30
0.0
 10
1021.357283
 20
-96.661111
 30
0.0
  0
SPLINE
  5
15D
330
1F
100
AcDbEntity
  8
0
100
AcDbSpline
210
0.0
220
0.0
230
1.0
 70
     8
 71
     3
 72
     8
 73
     4
 74
     0
 42
0.0000001
 43
0.0000001
 40
0.0
 40
0.0
 40
0.0
 40
0.0
 40
1.0
 40
1.0
 40
1.0
 40
1.0
 10
1021.357283
 20
-96.661111
 30
0.0
 10
1019.240617
 20
-97.131717
 30
0.0
 10
858.462144
 20
-111.257292
 30
0.0
 10
858.462144
 20
-111.257292
 30
0.0
  0
LINE
  5
15E
330
1F
100
AcDbEntity
  8
0
100
AcDbLine
 10
858.403231
 20
-111.360303
 30
0.0
 11
858.403231
 21
-85.960303
 31
0.0
  0
LINE
  5
15F
330
1F
100
AcDbEntity
  8
0
100
AcDbLine
 10
858.403231
 20
-85.960303
 30
0.0
 11
852.406008
 21
-85.960303
 31
0.0
  0
SPLINE
  5
160
330
1F
100
AcDbEntity
  8
0
100
AcDbSpline
210
0.0
220
0.0
230
1.0
 70
     8
 71
     3
 72
     8
 73
     4
 74
     0
 42
0.0000001
 43
0.0000001
 40
0.0
 40
0.0
 40
0.0
 40
0.0
 40
1.0
 40
1.0
 40
1.0
 40
1.0
 10
674.775694
 20
61.295139
 30
0.0
 10
674.775694
 20
61.295139
 30
0.0
 10
678.479861
 20
65.793056
 30
0.0
 10
683.41875
 20
67.46875
 30
0.0
  0
SPLINE
  5
161
330
1F
100
AcDbEntity
  8
0
100
AcDbSpline
210
0.0
220
0.0
230
1.0
 70
     8
 71
     3
 72
     8
 73
     4
 74
     0
 42
0.0000001
 43
0.0000001
 40
0.0
 40
0.0
 40
0.0
 40
0.0
 40
1.0
 40
1.0
 40
1.0
 40
1.0
 10
683.41875
 20
67.46875
 30
0.0
 10
690.650694
 20
70.64375
 30
0.0
 10
698.852778
 20
67.645139
 30
0.0
 10
701.145833
 20
66.675
 30
0.0
  0
SPLINE
  5
162
330
1F
100
AcDbEntity
  8
0
100
AcDbSpline
210
0.0
220
0.0
230
1.0
 70
     8
 71
     3
 72
     8
 73
     4
 74
     0
 42
0.0000001
 43
0.0000001
 40
0.0
 40
0.0
 40
0.0
 40
0.0
 40
1.0
 40
1.0
 40
1.0
 40
1.0
 10
701.145833
 20
66.675
 30
0.0
 10
703.438889
 20
65.704861
 30
0.0
 10
712.346528
 20
61.383333
 30
0.0
 10
712.346528
 20
61.383333
 30
0.0
  0
LINE
  5
163
330
1F
100
AcDbEntity
  8
0
100
AcDbLine
 10
712.346528
 20
61.383333
 30
0.0
 11
712.611111
 21
56.542517
 31
0.0
  0
SPLINE
  5
164
330
1F
100
AcDbEntity
  8
0
100
AcDbSpline
210
0.0
220
0.0
230
1.0
 70
     8
 71
     3
 72
     8
 73
     4
 74
     0
 42
0.0000001
 43
0.0000001
 40
0.0
 40
0.0
 40
0.0
 40
0.0
 40
1.0
 40
1.0
 40
1.0
 40
1.0
 10
712.611111
 20
56.542517
 30
0.0
 10
712.611111
 20
56.542517
 30
0.0
 10
703.703472
 20
52.220989
 30
0.0
 10
701.410417
 20
51.25085
 30
0.0
  0
SPLINE
  5
165
330
1F
100
AcDbEntity
  8
0
100
AcDbSpline
210
0.0
220
0.0
230
1.0
 70
     8
 71
     3
 72
     8
 73
     4
 74
     0
 42
0.0000001
 43
0.0000001
 40
0.0
 40
0.0
 40
0.0
 40
0.0
 40
1.0
 40
1.0
 40
1.0
 40
1.0
 10
701.410417
 20
51.25085
 30
0.0
 10
699.117361
 20
50.280711
 30
0.0
 10
690.915278
 20
47.2821
 30
0.0
 10
683.683333
 20
50.4571
 30
0.0
  0
SPLINE
  5
166
330
1F
100
AcDbEntity
  8
0
100
AcDbSpline
210
0.0
220
0.0
230
1.0
 70
     8
 71
     3
 72
     8
 73
     4
 74
     0
 42
0.000000001
 43
0.0000001
 40
0.0
 40
0.0
 40
0.0
 40
0.0
 40
0.8290887566513222
 40
0.8290887566513222
 40
0.8290887566513222
 40
0.8290887566513222
 10
683.683333
 20
50.4571
 30
0.0
 10
679.5885556597511
 20
51.84639905498808
 30
0.0
 10
676.3425122984911
 20
55.17566080313397
 30
0.0
 10
675.3525528052377
 20
56.27309500000001
 30
0.0
  0
LINE
  5
10048
330
1F
100
AcDbEntity
  8
0
100
AcDbLine
 10
258.586111
 20
-19.29543367448507
 30
0.0
 11
420.29144
 21
-21.223297
 31
0.0
  0
LINE
  5
10049
330
1F
100
AcDbEntity
  8
0
  6
ByBlock
100
AcDbLine
 10
674.775694
 20
61.295139
 30
0.0
 11
674.7288921510625
 21
61.23788699999996
 31
0.0
  0
LINE
  5
1009C
330
1F
100
AcDbEntity
  8
0
  6
ByBlock
100
AcDbLine
 10
463.3307317892705
 20
-230.6329945870089
 30
0.0
 11
480.2660416568302
 21
-232.1146422137191
 31
0.0
  0
LINE
  5
1009D
330
1F
100
AcDbEntity
  8
0
  6
ByBlock
100
AcDbLine
 10
478.522926801877
 20
-252.038536175554
 30
0.0
 11
480.2660416568302
 21
-232.1146422137191
 31
0.0
  0
LINE
  5
1009E
330
1F
100
AcDbEntity
  8
0
  6
ByBlock
100
AcDbLine
 10
461.5876169343173
 20
-250.5568885488438
 30
0.0
 11
478.522926801877
 21
-252.038536175554
 31
0.0
  0
LINE
  5
1009F
330
1F
100
AcDbEntity
  8
0
  6
ByBlock
100
AcDbLine
 10
463.3307317892705
 20
-230.6329945870089
 30
0.0
 11
454.3649795064448
 21
-229.84859290228
 31
0.0
  0
LINE
  5
100A0
330
1F
100
AcDbEntity
  8
0
  6
ByBlock
100
AcDbLine
 10
454.3649795064448
 20
-229.84859290228
 30
0.0
 11
453.4062663362206
 21
-240.8067345812892
 31
0.0
  0
LINE
  5
100A1
330
1F
100
AcDbEntity
  8
0
  6
ByBlock
100
AcDbLine
 10
453.4062663362206
 20
-240.8067345812892
 30
0.0
 11
462.3720186190463
 21
-241.5911362660181
 31
0.0
  0
LINE
  5
100A2
330
1F
100
AcDbEntity
  8
0
  6
ByBlock
100
AcDbLine
 10
461.5876169343173
 20
-250.5568885488438
 30
0.0
 11
462.3720186190463
 21
-241.5911362660181
 31
0.0
  0
LINE
  5
100A3
330
1F
100
AcDbEntity
  8
0
  6
ByBlock
100
AcDbLine
 10
557.2931670656826
 20
-250.5568885488438
 30
0.0
 11
556.5087653809537
 21
-241.5911362660181
 31
0.0
  0
LINE
  5
100A4
330
1F
100
AcDbEntity
  8
0
  6
ByBlock
100
AcDbLine
 10
565.4745176637794
 20
-240.8067345812892
 30
0.0
 11
556.5087653809537
 21
-241.5911362660181
 31
0.0
  0
LINE
  5
100A5
330
1F
100
AcDbEntity
  8
0
  6
ByBlock
100
AcDbLine
 10
564.5158044935552
 20
-229.84859290228
 30
0.0
 11
565.4745176637794
 21
-240.8067345812892
 31
0.0
  0
LINE
  5
100A6
330
1F
100
AcDbEntity
  8
0
  6
ByBlock
100
AcDbLine
 10
555.5500522107295
 20
-230.6329945870089
 30
0.0
 11
564.5158044935552
 21
-229.84859290228
 31
0.0
  0
LINE
  5
100A7
330
1F
100
AcDbEntity
  8
0
  6
ByBlock
100
AcDbLine
 10
557.2931670656826
 20
-250.5568885488438
 30
0.0
 11
540.3578571981229
 21
-252.038536175554
 31
0.0
  0
LINE
  5
100A8
330
1F
100
AcDbEntity
  8
0
  6
ByBlock
100
AcDbLine
 10
540.3578571981229
 20
-252.038536175554
 30
0.0
 11
538.6147423431698
 21
-232.1146422137191
 31
0.0
  0
LINE
  5
100A9
330
1F
100
AcDbEntity
  8
0
  6
ByBlock
100
AcDbLine
 10
555.5500522107295
 20
-230.6329945870089
 30
0.0
 11
538.6147423431698
 21
-232.1146422137191
 31
0.0
  0
LWPOLYLINE
  5
100AC
330
1F
100
AcDbEntity
  8
0
  6
ByBlock
100
AcDbPolyline
 90
        4
 70
     1
 43
0.0
 10
32.35456003191587
 20
-375.4834537007504
 10
32.35456003191587
 20
-365.4834537007505
 10
282.3545600319159
 20
-365.4834537007505
 10
282.3545600319159
 20
-375.4834537007504
  0
LWPOLYLINE
  5
100AD
330
1F
100
AcDbEntity
  8
0
  6
ByBlock
100
AcDbPolyline
 90
        4
 70
     1
 43
0.0
 10
32.35456003191587
 20
-359.6713607714734
 10
32.35456003191587
 20
-349.6713607714735
 10
282.3545600319159
 20
-349.6713607714735
 10
282.3545600319159
 20
-359.6713607714734
  0
LWPOLYLINE
  5
100AE
330
1F
100
AcDbEntity
  8
0
  6
ByBlock
100
AcDbPolyline
 90
        4
 70
     1
 43
0.0
 10
32.35456003191587
 20
-345.1379684671833
 10
32.35456003191587
 20
-335.1379684671835
 10
282.3545600319159
 20
-335.1379684671835
 10
282.3545600319159
 20
-345.1379684671833
  0
LWPOLYLINE
  5
100AF
330
1F
100
AcDbEntity
  8
0
  6
ByBlock
100
AcDbPolyline
 90
        4
 70
     1
 43
0.0
 10
32.35456003191587
 20
-329.2204435624847
 10
32.35456003191587
 20
-319.2204435624848
 10
282.3545600319159
 20
-319.2204435624848
 10
282.3545600319159
 20
-329.2204435624847
  0
LWPOLYLINE
  5
100B0
330
1F
100
AcDbEntity
  8
0
  6
ByBlock
100
AcDbPolyline
 90
        4
 70
     1
 43
0.0
 10
32.35456003191587
 20
-315.3791175583989
 10
32.35456003191587
 20
-305.3791175583991
 10
282.3545600319159
 20
-305.3791175583991
 10
282.3545600319159
 20
-315.3791175583989
  0
LWPOLYLINE
  5
100B1
330
1F
100
AcDbEntity
  8
0
  6
ByBlock
100
AcDbPolyline
 90
        4
 70
     1
 43
0.0
 10
731.2490972876018
 20
-372.5494372693422
 10
731.2490972876018
 20
-362.5494372693424
 10
981.2490972876019
 20
-362.5494372693424
 10
981.2490972876019
 20
-372.5494372693422
  0
LWPOLYLINE
  5
100B2
330
1F
100
AcDbEntity
  8
0
  6
ByBlock
100
AcDbPolyline
 90
        4
 70
     1
 43
0.0
 10
731.2490972876018
 20
-356.7373443400652
 10
731.2490972876018
 20
-346.7373443400654
 10
981.2490972876019
 20
-346.7373443400654
 10
981.2490972876019
 20
-356.7373443400652
  0
LWPOLYLINE
  5
100B3
330
1F
100
AcDbEntity
  8
0
  6
ByBlock
100
AcDbPolyline
 90
        4
 70
     1
 43
0.0
 10
731.2490972876018
 20
-342.2039520357752
 10
731.2490972876018
 20
-332.2039520357753
 10
981.2490972876019
 20
-332.2039520357753
 10
981.2490972876019
 20
-342.2039520357752
  0
LWPOLYLINE
  5
100B4
330
1F
100
AcDbEntity
  8
0
  6
ByBlock
100
AcDbPolyline
 90
        4
 70
     1
 43
0.0
 10
731.2490972876018
 20
-326.2864271310765
 10
731.2490972876018
 20
-316.2864271310767
 10
981.2490972876019
 20
-316.2864271310767
 10
981.2490972876019
 20
-326.2864271310765
  0
LWPOLYLINE
  5
100B5
330
1F
100
AcDbEntity
  8
0
  6
ByBlock
100
AcDbPolyline
 90
        4
 70
     1
 43
0.0
 10
731.2490972876018
 20
-312.4451011269907
 10
731.2490972876018
 20
-302.4451011269909
 10
981.2490972876019
 20
-302.4451011269909
 10
981.2490972876019
 20
-312.4451011269907
  0
CIRCLE
  5
100BA
330
1F
100
AcDbEntity
  8
0
  6
ByBlock
100
AcDbCircle
 10
408.586111
 20
4.581587302741973
 30
0.0
 40
4.0
  0
LWPOLYLINE
  5
100BB
330
1F
100
AcDbEntity
  8
0
  6
ByBlock
100
AcDbPolyline
 90
        4
 70
     1
 43
0.0
 10
522.4380679701264
 20
39.7305465998076
 10
522.4380679701264
 20
48.7305465998076
 10
542.4380679701264
 20
48.7305465998076
 10
542.4380679701264
 20
39.7305465998076
  0
LWPOLYLINE
  5
100BC
330
1F
100
AcDbEntity
  8
0
  6
ByBlock
100
AcDbPolyline
 90
        4
 70
     1
 43
0.0
 10
556.9860176763244
 20
19.35611472179341
 10
556.9860176763244
 20
28.3561147217934
 10
576.9860176763244
 20
28.3561147217934
 10
576.9860176763244
 20
19.35611472179341
  0
SPLINE
  5
100C6
330
1F
100
AcDbEntity
  8
0
100
AcDbSpline
210
0.0
220
0.0
230
1.0
 70
     8
 71
     3
 72
     8
 73
     4
 74
     0
 42
0.000000001
 43
0.0000001
 40
0.4404864363078728
 40
0.4404864363078728
 40
0.4404864363078728
 40
0.4404864363078728
 40
1.0
 40
1.0
 40
1.0
 40
1.0
 10
46.03528944586728
 20
-467.8243218581466
 30
0.0
 10
43.84042339337588
 20
-438.4747551976021
 30
0.0
 10
44.67409111311391
 20
-404.3137009847395
 30
0.0
 10
59.7713974840521
 20
-400.4720170718831
 30
0.0
  0
SPLINE
  5
100C7
330
1F
100
AcDbEntity
  8
0
100
AcDbSpline
210
0.0
220
0.0
230
1.0
 70
     8
 71
     3
 72
     8
 73
     4
 74
     0
 42
0.0000001
 43
0.0000001
 40
0.0
 40
0.0
 40
0.0
 40
0.0
 40
1.0
 40
1.0
 40
1.0
 40
1.0
 10
59.7713974840521
 20
-400.4720170718831
 30
0.0
 10
60.8932314840521
 20
-400.4582580718832
 30
0.0
 10
59.9671894840521
 20
-400.4617860718831
 30
0.0
 10
59.9671894840521
 20
-400.4617860718831
 30
0.0
  0
LINE
  5
100C8
330
1F
100
AcDbEntity
  8
0
100
AcDbLine
 10
59.9671894840521
 20
-400.4617860718831
 30
0.0
 11
396.3044644840521
 21
-383.5393890718831
 31
0.0
  0
LINE
  5
100C9
330
1F
100
AcDbEntity
  8
0
100
AcDbLine
 10
396.3044644840521
 20
-383.5393890718831
 30
0.0
 11
398.9506504840521
 21
-383.5393890718831
 31
0.0
  0
LINE
  5
100CA
330
1F
100
AcDbEntity
  8
0
100
AcDbLine
 10
398.9506504840521
 20
-383.5393890718831
 30
0.0
 11
455.321811
 21
-366.51820587792
 31
0.0
  0
SPLINE
  5
100DA
330
1F
100
AcDbEntity
  8
0
100
AcDbSpline
210
0.0
220
0.0
230
1.0
 70
     8
 71
     3
 72
     8
 73
     4
 74
     0
 42
0.000000001
 43
0.0000001
 40
0.4404864363078738
 40
0.4404864363078738
 40
0.4404864363078738
 40
0.4404864363078738
 40
1.0
 40
1.0
 40
1.0
 40
1.0
 10
1001.669044606563
 20
-467.8243218581465
 30
0.0
 10
1003.86394887269
 20
-438.474755197602
 30
0.0
 10
1003.030367906216
 20
-404.3137009847395
 30
0.0
 10
987.9332584840522
 20
-400.4720170718831
 30
0.0
  0
SPLINE
  5
100DB
330
1F
100
AcDbEntity
  8
0
100
AcDbSpline
210
0.0
220
0.0
230
1.0
 70
     8
 71
     3
 72
     8
 73
     4
 74
     0
 42
0.0000001
 43
0.0000001
 40
0.0
 40
0.0
 40
0.0
 40
0.0
 40
1.0
 40
1.0
 40
1.0
 40
1.0
 10
987.9332584840522
 20
-400.4720170718831
 30
0.0
 10
986.8110724840521
 20
-400.4582580718832
 30
0.0
 10
987.7374674840521
 20
-400.4617860718831
 30
0.0
 10
987.7374674840521
 20
-400.4617860718831
 30
0.0
  0
LINE
  5
100DC
330
1F
100
AcDbEntity
  8
0
100
AcDbLine
 10
987.7374674840521
 20
-400.4617860718831
 30
0.0
 11
651.4005454840521
 21
-383.5393890718831
 31
0.0
  0
LINE
  5
100DD
330
1F
100
AcDbEntity
  8
0
100
AcDbLine
 10
651.4005454840521
 20
-383.5393890718831
 30
0.0
 11
648.7540064840521
 21
-383.5393890718831
 31
0.0
  0
LINE
  5
100DE
330
1F
100
AcDbEntity
  8
0
100
AcDbLine
 10
648.7540064840521
 20
-383.5393890718831
 30
0.0
 11
592.4020964897529
 21
-366.524018696644
 31
0.0
  0
LINE
  5
10102
330
1F
100
AcDbEntity
  8
0
  6
ByBlock
100
AcDbLine
 10
46.03528944586728
 20
-467.8243218581467
 30
0.0
 11
455.321811
 21
-467.8243218581467
 31
0.0
  0
LINE
  5
10103
330
1F
100
AcDbEntity
  8
0
  6
ByBlock
100
AcDbLine
 10
455.321811
 20
-366.51820587792
 30
0.0
 11
455.321811
 21
-467.8243218581467
 31
0.0
  0
LINE
  5
10105
330
1F
100
AcDbEntity
  8
0
  6
ByBlock
100
AcDbLine
 10
592.4020964897529
 20
-366.51820587792
 30
0.0
 11
592.4020964897529
 21
-467.8243218581467
 31
0.0
  0
LINE
  5
10106
330
1F
100
AcDbEntity
  8
0
  6
ByBlock
100
AcDbLine
 10
592.4020964897529
 20
-467.8243218581467
 30
0.0
 11
1001.669044606563
 21
-467.8243218581467
 31
0.0
  0
ENDSEC
  0
SECTION
  2
OBJECTS
  0
DICTIONARY
  5
C
330
0
100
AcDbDictionary
281
     1
  3
ACAD_GROUP
350
D
  3
ACAD_IMAGE_VARS
350
1003C
  3
ACAD_LAYOUT
350
FFFF
  3
ACAD_MATERIAL
350
10024
  3
ACAD_MLEADERSTYLE
350
10050
  3
ACAD_MLINESTYLE
350
17
  3
ACAD_PLOTSETTINGS
350
10041
  3
ACAD_PLOTSTYLENAME
350
10042
  3
ACAD_SCALELIST
350
10002
  3
ACAD_TABLESTYLE
350
10039
  3
ACAD_VISUALSTYLE
350
10028
  3
AcDbVariableDictionary
350
1004A
  3
ACDB_RECOMPOSE_DATA
350
1010A
  3
APPDATA
350
1003B
  0
DICTIONARY
  5
1003D
330
2
100
AcDbDictionary
280
     1
281
     1
  3
ACAD_LAYERSTATES
360
1003E
  0
DICTIONARY
  5
D
330
C
100
AcDbDictionary
281
     1
  0
RASTERVARIABLES
  5
1003C
102
{ACAD_REACTORS
330
C
102
}
330
C
100
AcDbRasterVariables
 90
        0
 70
     1
 71
     1
 72
     0
  0
DICTIONARY
  5
FFFF
102
{ACAD_REACTORS
330
C
102
}
330
C
100
AcDbDictionary
281
     1
  3
Hoja 1
350
10001
  3
Model
350
10000
  0
DICTIONARY
  5
10024
102
{ACAD_REACTORS
330
C
102
}
330
C
100
AcDbDictionary
281
     1
  3
ByBlock
350
10026
  3
ByLayer
350
10025
  3
Global
350
10027
  0
DICTIONARY
  5
10050
102
{ACAD_REACTORS
330
C
102
}
330
C
100
AcDbDictionary
281
     1
  0
DICTIONARY
  5
17
330
C
100
AcDbDictionary
281
     1
  3
Standard
350
10054
  0
DICTIONARY
  5
10041
102
{ACAD_REACTORS
330
C
102
}
330
C
100
AcDbDictionary
281
     1
  0
ACDBDICTIONARYWDFLT
  5
10042
102
{ACAD_REACTORS
330
C
102
}
330
C
100
AcDbDictionary
281
     1
  3
Normal
350
10043
100
AcDbDictionaryWithDefault
340
10043
  0
DICTIONARY
  5
10002
102
{ACAD_REACTORS
330
C
102
}
330
C
100
AcDbDictionary
281
     1
  3
A0
350
10003
  3
A1
350
10004
  3
A2
350
10005
  3
A3
350
10006
  3
A4
350
10007
  3
A5
350
10008
  3
A6
350
10009
  3
A7
350
1000A
  3
A8
350
1000B
  3
A9
350
1000C
  3
B0
350
1000D
  3
B1
350
1000E
  3
B2
350
1000F
  3
B3
350
10010
  3
B4
350
10011
  3
B5
350
10012
  3
B6
350
10013
  3
B7
350
10014
  3
B8
350
10015
  3
B9
350
10016
  3
C0
350
10017
  3
C1
350
10018
  3
C2
350
10019
  3
C3
350
1001A
  3
C4
350
1001B
  3
C5
350
1001C
  3
C6
350
1001D
  3
C7
350
1001E
  3
C8
350
1001F
  3
C9
350
10020
  3
D0
350
10021
  3
D1
350
10022
  3
D2
350
10023
  0
DICTIONARY
  5
10039
102
{ACAD_REACTORS
330
C
102
}
330
C
100
AcDbDictionary
281
     1
  3
Standard
350
1003A
  0
DICTIONARY
  5
10028
102
{ACAD_REACTORS
330
C
102
}
330
C
100
AcDbDictionary
281
     1
  3
2dWireframe
350
1002D
  3
3D Hidden
350
1002F
  3
3dWireframe
350
1002E
  3
Basic
350
10030
  3
Brighten
350
10034
  3
ColorChange
350
10038
  3
Conceptual
350
10032
  3
Dim
350
10033
  3
Facepattern
350
10037
  3
Flat
350
10029
  3
FlatWithEdges
350
1002A
  3
Gouraud
350
1002B
  3
GouraudWithEdges
350
1002C
  3
Linepattern
350
10036
  3
Realistic
350
10031
  3
Thicken
350
10035
  0
DICTIONARY
  5
1004A
102
{ACAD_REACTORS
330
C
102
}
330
C
100
AcDbDictionary
281
     1
  3
CANNOSCALE
350
1004B
  3
CTABLESTYLE
350
1004F
  0
XRECORD
  5
1010A
102
{ACAD_REACTORS
330
C
102
}
330
C
100
AcDbXrecord
280
     1
 90
        1
330
1003A
  0
DICTIONARY
  5
1003B
102
{ACAD_REACTORS
330
C
102
}
330
C
100
AcDbDictionary
281
     1
  0
DICTIONARY
  5
1003E
102
{ACAD_REACTORS
330
1003D
102
}
330
1003D
100
AcDbDictionary
281
     1
  3
ARGON_LAYERP_1
350
1003F
  0
LAYOUT
  5
10001
102
{ACAD_REACTORS
330
FFFF
102
}
330
FFFF
100
AcDbPlotSettings
  1

  2
none_device
  4

  6

 40
0.0
 41
0.0
 42
0.0
 43
0.0
 44
0.0
 45
0.0
 46
0.0
 47
0.0
 48
0.0
 49
0.0
140
0.0
141
0.0
142
1.0
143
1.0
 70
   688
 72
     0
 73
     0
 74
     5
  7

 75
    16
 76
     0
 77
     2
 78
   300
147
1.0
148
0.0
149
0.0
100
AcDbLayout
  1
Hoja 1
 70
     1
 71
     1
 10
0.0
 20
0.0
 11
12.0
 21
9.0
 12
0.0
 22
0.0
 32
0.0
 14
1.000000000000000E+20
 24
1.000000000000000E+20
 34
1.000000000000000E+20
 15
-1.000000000000000E+20
 25
-1.000000000000000E+20
 35
-1.000000000000000E+20
146
0.0
 13
0.0
 23
0.0
 33
0.0
 16
1.0
 26
0.0
 36
0.0
 17
0.0
 27
1.0
 37
0.0
 76
     0
330
1B
  0
LAYOUT
  5
10000
102
{ACAD_REACTORS
330
FFFF
102
}
330
FFFF
100
AcDbPlotSettings
  1

  2
none_device
  4

  6

 40
0.0
 41
0.0
 42
0.0
 43
0.0
 44
0.0
 45
0.0
 46
0.0
 47
0.0
 48
0.0
 49
0.0
140
0.0
141
0.0
142
1.0
143
1.0
 70
  1712
 72
     0
 73
     0
 74
     0
  7

 75
     0
 76
     0
 77
     2
 78
   300
147
1.0
148
0.0
149
0.0
100
AcDbLayout
  1
Model
 70
     1
 71
     0
 10
0.0
 20
0.0
 11
12.0
 21
9.0
 12
0.0
 22
0.0
 32
0.0
 14
1.000000000000000E+20
 24
1.000000000000000E+20
 34
1.000000000000000E+20
 15
-1.000000000000000E+20
 25
-1.000000000000000E+20
 35
-1.000000000000000E+20
146
0.0
 13
0.0
 23
0.0
 33
0.0
 16
1.0
 26
0.0
 36
0.0
 17
0.0
 27
1.0
 37
0.0
 76
     0
330
1F
331
2E
  0
MATERIAL
  5
10026
102
{ACAD_REACTORS
330
10024
102
}
330
10024
100
AcDbMaterial
  1
ByBlock
 72
     1
 94
      127
  0
MATERIAL
  5
10025
102
{ACAD_REACTORS
330
10024
102
}
330
10024
100
AcDbMaterial
  1
ByLayer
 72
     1
 94
      127
  0
MATERIAL
  5
10027
102
{ACAD_REACTORS
330
10024
102
}
330
10024
100
AcDbMaterial
  1
Global
 72
     1
 94
      127
  0
MLINESTYLE
  5
10054
102
{ACAD_REACTORS
330
17
102
}
330
17
100
AcDbMlineStyle
  2
Standard
 70
     0
  3

 62
   256
 51
90.0
 52
90.0
 71
     2
 49
0.5
 62
   256
  6
BYLAYER
 49
-0.5
 62
   256
  6
BYLAYER
  0
ACDBPLACEHOLDER
  5
10043
102
{ACAD_REACTORS
330
10042
102
}
330
10042
  0
SCALE
  5
10003
102
{ACAD_REACTORS
330
10002
102
}
330
10002
100
AcDbScale
 70
     0
300
1:1
140
1.0
141
1.0
290
     1
  0
SCALE
  5
10004
102
{ACAD_REACTORS
330
10002
102
}
330
10002
100
AcDbScale
 70
     0
300
1:2
140
1.0
141
2.0
290
     0
  0
SCALE
  5
10005
102
{ACAD_REACTORS
330
10002
102
}
330
10002
100
AcDbScale
 70
     0
300
1:4
140
1.0
141
4.0
290
     0
  0
SCALE
  5
10006
102
{ACAD_REACTORS
330
10002
102
}
330
10002
100
AcDbScale
 70
     0
300
1:5
140
1.0
141
5.0
290
     0
  0
SCALE
  5
10007
102
{ACAD_REACTORS
330
10002
102
}
330
10002
100
AcDbScale
 70
     0
300
1:8
140
1.0
141
8.0
290
     0
  0
SCALE
  5
10008
102
{ACAD_REACTORS
330
10002
102
}
330
10002
100
AcDbScale
 70
     0
300
1:10
140
1.0
141
10.0
290
     0
  0
SCALE
  5
10009
102
{ACAD_REACTORS
330
10002
102
}
330
10002
100
AcDbScale
 70
     0
300
1:16
140
1.0
141
16.0
290
     0
  0
SCALE
  5
1000A
102
{ACAD_REACTORS
330
10002
102
}
330
10002
100
AcDbScale
 70
     0
300
1:20
140
1.0
141
20.0
290
     0
  0
SCALE
  5
1000B
102
{ACAD_REACTORS
330
10002
102
}
330
10002
100
AcDbScale
 70
     0
300
1:30
140
1.0
141
30.0
290
     0
  0
SCALE
  5
1000C
102
{ACAD_REACTORS
330
10002
102
}
330
10002
100
AcDbScale
 70
     0
300
1:40
140
1.0
141
40.0
290
     0
  0
SCALE
  5
1000D
102
{ACAD_REACTORS
330
10002
102
}
330
10002
100
AcDbScale
 70
     0
300
1:50
140
1.0
141
50.0
290
     0
  0
SCALE
  5
1000E
102
{ACAD_REACTORS
330
10002
102
}
330
10002
100
AcDbScale
 70
     0
300
1:100
140
1.0
141
100.0
290
     0
  0
SCALE
  5
1000F
102
{ACAD_REACTORS
330
10002
102
}
330
10002
100
AcDbScale
 70
     0
300
2:1
140
2.0
141
1.0
290
     0
  0
SCALE
  5
10010
102
{ACAD_REACTORS
330
10002
102
}
330
10002
100
AcDbScale
 70
     0
300
4:1
140
4.0
141
1.0
290
     0
  0
SCALE
  5
10011
102
{ACAD_REACTORS
330
10002
102
}
330
10002
100
AcDbScale
 70
     0
300
8:1
140
8.0
141
1.0
290
     0
  0
SCALE
  5
10012
102
{ACAD_REACTORS
330
10002
102
}
330
10002
100
AcDbScale
 70
     0
300
10:1
140
10.0
141
1.0
290
     0
  0
SCALE
  5
10013
102
{ACAD_REACTORS
330
10002
102
}
330
10002
100
AcDbScale
 70
     0
300
100:1
140
100.0
141
1.0
290
     0
  0
SCALE
  5
10014
102
{ACAD_REACTORS
330
10002
102
}
330
10002
100
AcDbScale
 70
     0
300
1/128" = 1'-0"
140
0.0078125
141
12.0
290
     0
  0
SCALE
  5
10015
102
{ACAD_REACTORS
330
10002
102
}
330
10002
100
AcDbScale
 70
     0
300
1/64" = 1'-0"
140
0.015625
141
12.0
290
     0
  0
SCALE
  5
10016
102
{ACAD_REACTORS
330
10002
102
}
330
10002
100
AcDbScale
 70
     0
300
1/32" = 1'-0"
140
0.03125
141
12.0
290
     0
  0
SCALE
  5
10017
102
{ACAD_REACTORS
330
10002
102
}
330
10002
100
AcDbScale
 70
     0
300
1/16" = 1'-0"
140
0.0625
141
12.0
290
     0
  0
SCALE
  5
10018
102
{ACAD_REACTORS
330
10002
102
}
330
10002
100
AcDbScale
 70
     0
300
3/32" = 1'-0"
140
0.09375
141
12.0
290
     0
  0
SCALE
  5
10019
102
{ACAD_REACTORS
330
10002
102
}
330
10002
100
AcDbScale
 70
     0
300
1/8" = 1'-0"
140
0.125
141
12.0
290
     0
  0
SCALE
  5
1001A
102
{ACAD_REACTORS
330
10002
102
}
330
10002
100
AcDbScale
 70
     0
300
3/16" = 1'-0"
140
0.1875
141
12.0
290
     0
  0
SCALE
  5
1001B
102
{ACAD_REACTORS
330
10002
102
}
330
10002
100
AcDbScale
 70
     0
300
1/4" = 1'-0"
140
0.25
141
12.0
290
     0
  0
SCALE
  5
1001C
102
{ACAD_REACTORS
330
10002
102
}
330
10002
100
AcDbScale
 70
     0
300
3/8" = 1'-0"
140
0.375
141
12.0
290
     0
  0
SCALE
  5
1001D
102
{ACAD_REACTORS
330
10002
102
}
330
10002
100
AcDbScale
 70
     0
300
1/2" = 1'-0"
140
0.5
141
12.0
290
     0
  0
SCALE
  5
1001E
102
{ACAD_REACTORS
330
10002
102
}
330
10002
100
AcDbScale
 70
     0
300
3/4" = 1'-0"
140
0.75
141
12.0
290
     0
  0
SCALE
  5
1001F
102
{ACAD_REACTORS
330
10002
102
}
330
10002
100
AcDbScale
 70
     0
300
1" = 1'-0"
140
1.0
141
12.0
290
     0
  0
SCALE
  5
10020
102
{ACAD_REACTORS
330
10002
102
}
330
10002
100
AcDbScale
 70
     0
300
1-1/2" = 1'-0"
140
1.5
141
12.0
290
     0
  0
SCALE
  5
10021
102
{ACAD_REACTORS
330
10002
102
}
330
10002
100
AcDbScale
 70
     0
300
3" = 1'-0"
140
3.0
141
12.0
290
     0
  0
SCALE
  5
10022
102
{ACAD_REACTORS
330
10002
102
}
330
10002
100
AcDbScale
 70
     0
300
6" = 1'-0"
140
6.0
141
12.0
290
     0
  0
SCALE
  5
10023
102
{ACAD_REACTORS
330
10002
102
}
330
10002
100
AcDbScale
 70
     0
300
1'-0" = 1'-0"
140
12.0
141
12.0
290
     0
  0
TABLESTYLE
  5
1003A
102
{ACAD_REACTORS
330
10039
102
}
102
{ACAD_XDICTIONARY
360
10051
102
}
330
10039
100
AcDbTableStyle
  3
Standard
 70
     0
 71
     0
 40
0.06
 41
0.06
280
     0
281
     0
  7
STANDARD
140
4.5
170
     2
 62
     0
 63
   257
283
     0
 90
        4
 91
        0
  1

274
    -2
284
     1
 64
     0
275
    -2
285
     1
 65
     0
276
    -2
286
     1
 66
     0
277
    -2
287
     1
 67
     0
278
    -2
288
     1
 68
     0
279
    -2
289
     1
 69
     0
  7
STANDARD
140
6.0
170
     5
 62
     0
 63
   257
283
     0
 90
        4
 91
        0
  1

274
    -2
284
     1
 64
     0
275
    -2
285
     1
 65
     0
276
    -2
286
     1
 66
     0
277
    -2
287
     1
 67
     0
278
    -2
288
     1
 68
     0
279
    -2
289
     1
 69
     0
  7
STANDARD
140
4.5
170
     5
 62
     0
 63
   257
283
     0
 90
        4
 91
        0
  1

274
    -2
284
     1
 64
     0
275
    -2
285
     1
 65
     0
276
    -2
286
     1
 66
     0
277
    -2
287
     1
 67
     0
278
    -2
288
     1
 68
     0
279
    -2
289
     1
 69
     0
  0
VISUALSTYLE
  5
1002D
102
{ACAD_REACTORS
330
10028
102
}
330
10028
100
AcDbVisualStyle
  2
2dWireframe
 70
     4
177
     2
291
     0
 71
     0
176
     1
 72
     2
176
     1
 73
     0
176
     1
 90
        0
176
     1
 40
-0.6
176
     1
 41
-30.0
176
     1
 62
     5
 63
     7
421
 16777215
176
     1
 74
     1
176
     1
 91
        4
176
     1
 64
     7
176
     1
 65
   257
176
     1
 75
     1
176
     1
175
     1
176
     1
 42
1.0
176
     1
 92
        0
176
     1
 66
   257
176
     1
 43
1.0
176
     1
 76
     1
176
     1
 77
     6
176
     1
 78
     2
176
     1
 67
     7
176
     1
 79
     5
176
     1
170
     0
176
     1
171
     0
176
     1
290
     0
176
     1
 93
        1
176
     1
 44
0.0
176
     1
173
     0
176
     1
  0
VISUALSTYLE
  5
1002F
102
{ACAD_REACTORS
330
10028
102
}
330
10028
100
AcDbVisualStyle
  2
3D Hidden
 70
     6
177
     2
291
     0
 71
     1
176
     1
 72
     2
176
     1
 73
     2
176
     1
 90
        0
176
     1
 40
-0.6
176
     1
 41
-30.0
176
     1
 62
     5
 63
     7
421
 16777215
176
     1
 74
     2
176
     1
 91
        2
176
     1
 64
     7
176
     1
 65
   257
176
     1
 75
     2
176
     1
175
     1
176
     1
 42
40.0
176
     1
 92
        0
176
     1
 66
   257
176
     1
 43
1.0
176
     1
 76
     1
176
     1
 77
     6
176
     1
 78
     2
176
     1
 67
     7
176
     1
 79
     3
176
     1
170
     0
176
     1
171
     0
176
     1
290
     0
176
     1
 93
        1
176
     1
 44
0.0
176
     1
173
     0
176
     1
  0
VISUALSTYLE
  5
1002E
102
{ACAD_REACTORS
330
10028
102
}
330
10028
100
AcDbVisualStyle
  2
3dWireframe
 70
     5
177
     2
291
     0
 71
     0
176
     1
 72
     2
176
     1
 73
     0
176
     1
 90
        0
176
     1
 40
-0.6
176
     1
 41
-30.0
176
     1
 62
     5
 63
     7
421
 16777215
176
     1
 74
     1
176
     1
 91
        4
176
     1
 64
     7
176
     1
 65
   257
176
     1
 75
     1
176
     1
175
     1
176
     1
 42
1.0
176
     1
 92
        0
176
     1
 66
   257
176
     1
 43
1.0
176
     1
 76
     1
176
     1
 77
     6
176
     1
 78
     2
176
     1
 67
     7
176
     1
 79
     5
176
     1
170
     0
176
     1
171
     0
176
     1
290
     0
176
     1
 93
        1
176
     1
 44
0.0
176
     1
173
     0
176
     1
  0
VISUALSTYLE
  5
10030
102
{ACAD_REACTORS
330
10028
102
}
330
10028
100
AcDbVisualStyle
  2
Basic
 70
     7
177
     2
291
     1
 71
     1
176
     1
 72
     0
176
     1
 73
     1
176
     1
 90
        0
176
     1
 40
-0.6
176
     1
 41
-30.0
176
     1
 62
     5
 63
     7
421
 16777215
176
     1
 74
     0
176
     1
 91
        4
176
     1
 64
     7
176
     1
 65
   257
176
     1
 75
     1
176
     1
175
     1
176
     1
 42
1.0
176
     1
 92
        8
176
     1
 66
     7
176
     1
 43
1.0
176
     1
 76
     1
176
     1
 77
     6
176
     1
 78
     2
176
     1
 67
     7
176
     1
 79
     5
176
     1
170
     0
176
     1
171
     0
176
     1
290
     0
176
     1
 93
        1
176
     1
 44
0.0
176
     1
173
     0
176
     1
  0
VISUALSTYLE
  5
10034
102
{ACAD_REACTORS
330
10028
102
}
330
10028
100
AcDbVisualStyle
  2
Brighten
 70
    12
177
     2
291
     1
 71
     2
176
     1
 72
     2
176
     1
 73
     0
176
     1
 90
        0
176
     1
 40
-0.6
176
     1
 41
-30.0
176
     1
 62
     5
 63
     7
421
 16777215
176
     1
 74
     1
176
     1
 91
        4
176
     1
 64
     7
176
     1
 65
   257
176
     1
 75
     1
176
     1
175
     1
176
     1
 42
1.0
176
     1
 92
        8
176
     1
 66
     7
176
     1
 43
1.0
176
     1
 76
     1
176
     1
 77
     6
176
     1
 78
     2
176
     1
 67
     7
176
     1
 79
     5
176
     1
170
     0
176
     1
171
     0
176
     1
290
     0
176
     1
 93
        1
176
     1
 44
50.0
176
     1
173
     0
176
     1
  0
VISUALSTYLE
  5
10038
102
{ACAD_REACTORS
330
10028
102
}
330
10028
100
AcDbVisualStyle
  2
ColorChange
 70
    16
177
     2
291
     1
 71
     2
176
     1
 72
     2
176
     1
 73
     3
176
     1
 90
        0
176
     1
 40
-0.6
176
     1
 41
-30.0
176
     1
 62
     5
 63
     8
421
  8421504
176
     1
 74
     1
176
     1
 91
        4
176
     1
 64
     7
176
     1
 65
   257
176
     1
 75
     1
176
     1
175
     1
176
     1
 42
1.0
176
     1
 92
        8
176
     1
 66
     8
424
  8421504
176
     1
 43
1.0
176
     1
 76
     1
176
     1
 77
     6
176
     1
 78
     2
176
     1
 67
     7
176
     1
 79
     5
176
     1
170
     0
176
     1
171
     0
176
     1
290
     0
176
     1
 93
        1
176
     1
 44
0.0
176
     1
173
     0
176
     1
  0
VISUALSTYLE
  5
10032
102
{ACAD_REACTORS
330
10028
102
}
330
10028
100
AcDbVisualStyle
  2
Conceptual
 70
     9
177
     2
291
     0
 71
     3
176
     1
 72
     2
176
     1
 73
     0
176
     1
 90
        0
176
     1
 40
-0.6
176
     1
 41
-30.0
176
     1
 62
     5
 63
     7
421
 16777215
176
     1
 74
     2
176
     1
 91
        2
176
     1
 64
     7
176
     1
 65
   257
176
     1
 75
     1
176
     1
175
     1
176
     1
 42
40.0
176
     1
 92
        8
176
     1
 66
     7
176
     1
 43
1.0
176
     1
 76
     1
176
     1
 77
     6
176
     1
 78
     2
176
     1
 67
     7
176
     1
 79
     3
176
     1
170
     0
176
     1
171
     0
176
     1
290
     0
176
     1
 93
        1
176
     1
 44
0.0
176
     1
173
     0
176
     1
  0
VISUALSTYLE
  5
10033
102
{ACAD_REACTORS
330
10028
102
}
330
10028
100
AcDbVisualStyle
  2
Dim
 70
    11
177
     2
291
     1
 71
     2
176
     1
 72
     2
176
     1
 73
     0
176
     1
 90
        0
176
     1
 40
-0.6
176
     1
 41
-30.0
176
     1
 62
     5
 63
     7
421
 16777215
176
     1
 74
     1
176
     1
 91
        4
176
     1
 64
     7
176
     1
 65
   257
176
     1
 75
     1
176
     1
175
     1
176
     1
 42
1.0
176
     1
 92
        8
176
     1
 66
     7
176
     1
 43
1.0
176
     1
 76
     1
176
     1
 77
     6
176
     1
 78
     2
176
     1
 67
     7
176
     1
 79
     5
176
     1
170
     0
176
     1
171
     0
176
     1
290
     0
176
     1
 93
        1
176
     1
 44
-50.0
176
     1
173
     0
176
     1
  0
VISUALSTYLE
  5
10037
102
{ACAD_REACTORS
330
10028
102
}
330
10028
100
AcDbVisualStyle
  2
Facepattern
 70
    15
177
     2
291
     1
 71
     2
176
     1
 72
     2
176
     1
 73
     0
176
     1
 90
        0
176
     1
 40
-0.6
176
     1
 41
-30.0
176
     1
 62
     5
 63
     7
421
 16777215
176
     1
 74
     1
176
     1
 91
        4
176
     1
 64
     7
176
     1
 65
   257
176
     1
 75
     1
176
     1
175
     1
176
     1
 42
1.0
176
     1
 92
        8
176
     1
 66
     7
176
     1
 43
1.0
176
     1
 76
     1
176
     1
 77
     6
176
     1
 78
     2
176
     1
 67
     7
176
     1
 79
     5
176
     1
170
     0
176
     1
171
     0
176
     1
290
     0
176
     1
 93
        1
176
     1
 44
0.0
176
     1
173
     0
176
     1
  0
VISUALSTYLE
  5
10029
102
{ACAD_REACTORS
330
10028
102
}
330
10028
100
AcDbVisualStyle
  2
Flat
 70
     0
177
     2
291
     1
 71
     2
176
     1
 72
     1
176
     1
 73
     1
176
     1
 90
        2
176
     1
 40
-0.6
176
     1
 41
30.0
176
     1
 62
     5
 63
     7
421
 16777215
176
     1
 74
     0
176
     1
 91
        4
176
     1
 64
     7
176
     1
 65
   257
176
     1
 75
     1
176
     1
175
     1
176
     1
 42
1.0
176
     1
 92
        8
176
     1
 66
     7
176
     1
 43
1.0
176
     1
 76
     1
176
     1
 77
     6
176
     1
 78
     2
176
     1
 67
     7
176
     1
 79
     5
176
     1
170
     0
176
     1
171
     0
176
     1
290
     0
176
     1
 93
       13
176
     1
 44
0.0
176
     1
173
     0
176
     1
  0
VISUALSTYLE
  5
1002A
102
{ACAD_REACTORS
330
10028
102
}
330
10028
100
AcDbVisualStyle
  2
FlatWithEdges
 70
     1
177
     2
291
     1
 71
     2
176
     1
 72
     1
176
     1
 73
     1
176
     1
 90
        2
176
     1
 40
-0.6
176
     1
 41
30.0
176
     1
 62
     5
 63
     7
421
 16777215
176
     1
 74
     1
176
     1
 91
        4
176
     1
 64
     7
176
     1
 65
   257
176
     1
 75
     1
176
     1
175
     1
176
     1
 42
1.0
176
     1
 92
        0
176
     1
 66
   257
176
     1
 43
1.0
176
     1
 76
     1
176
     1
 77
     6
176
     1
 78
     2
176
     1
 67
     7
176
     1
 79
     5
176
     1
170
     0
176
     1
171
     0
176
     1
290
     0
176
     1
 93
       13
176
     1
 44
0.0
176
     1
173
     0
176
     1
  0
VISUALSTYLE
  5
1002B
102
{ACAD_REACTORS
330
10028
102
}
330
10028
100
AcDbVisualStyle
  2
Gouraud
 70
     2
177
     2
291
     1
 71
     2
176
     1
 72
     2
176
     1
 73
     1
176
     1
 90
        2
176
     1
 40
-0.6
176
     1
 41
30.0
176
     1
 62
     5
 63
     7
421
 16777215
176
     1
 74
     0
176
     1
 91
        4
176
     1
 64
     7
176
     1
 65
   257
176
     1
 75
     1
176
     1
175
     1
176
     1
 42
1.0
176
     1
 92
        0
176
     1
 66
     7
176
     1
 43
1.0
176
     1
 76
     1
176
     1
 77
     6
176
     1
 78
     2
176
     1
 67
     7
176
     1
 79
     5
176
     1
170
     0
176
     1
171
     0
176
     1
290
     0
176
     1
 93
       13
176
     1
 44
0.0
176
     1
173
     0
176
     1
  0
VISUALSTYLE
  5
1002C
102
{ACAD_REACTORS
330
10028
102
}
330
10028
100
AcDbVisualStyle
  2
GouraudWithEdges
 70
     3
177
     2
291
     1
 71
     2
176
     1
 72
     2
176
     1
 73
     1
176
     1
 90
        2
176
     1
 40
-0.6
176
     1
 41
30.0
176
     1
 62
     5
 63
     7
421
 16777215
176
     1
 74
     1
176
     1
 91
        4
176
     1
 64
     7
176
     1
 65
   257
176
     1
 75
     1
176
     1
175
     1
176
     1
 42
1.0
176
     1
 92
        0
176
     1
 66
   257
176
     1
 43
1.0
176
     1
 76
     1
176
     1
 77
     6
176
     1
 78
     2
176
     1
 67
     7
176
     1
 79
     5
176
     1
170
     0
176
     1
171
     0
176
     1
290
     0
176
     1
 93
       13
176
     1
 44
0.0
176
     1
173
     0
176
     1
  0
VISUALSTYLE
  5
10036
102
{ACAD_REACTORS
330
10028
102
}
330
10028
100
AcDbVisualStyle
  2
Linepattern
 70
    14
177
     2
291
     1
 71
     2
176
     1
 72
     2
176
     1
 73
     0
176
     1
 90
        0
176
     1
 40
-0.6
176
     1
 41
-30.0
176
     1
 62
     5
 63
     7
421
 16777215
176
     1
 74
     1
176
     1
 91
        4
176
     1
 64
     7
176
     1
 65
   257
176
     1
 75
     7
176
     1
175
     7
176
     1
 42
1.0
176
     1
 92
        8
176
     1
 66
     7
176
     1
 43
1.0
176
     1
 76
     1
176
     1
 77
     6
176
     1
 78
     2
176
     1
 67
     7
176
     1
 79
     5
176
     1
170
     0
176
     1
171
     0
176
     1
290
     0
176
     1
 93
        1
176
     1
 44
0.0
176
     1
173
     0
176
     1
  0
VISUALSTYLE
  5
10031
102
{ACAD_REACTORS
330
10028
102
}
330
10028
100
AcDbVisualStyle
  2
Realistic
 70
     8
177
     2
291
     0
 71
     2
176
     1
 72
     2
176
     1
 73
     0
176
     1
 90
        0
176
     1
 40
-0.6
176
     1
 41
-30.0
176
     1
 62
     5
 63
     7
421
 16777215
176
     1
 74
     1
176
     1
 91
        0
176
     1
 64
     7
176
     1
 65
   257
176
     1
 75
     1
176
     1
175
     1
176
     1
 42
1.0
176
     1
 92
        8
176
     1
 66
     8
424
  7895160
176
     1
 43
1.0
176
     1
 76
     1
176
     1
 77
     6
176
     1
 78
     2
176
     1
 67
     7
176
     1
 79
     5
176
     1
170
     0
176
     1
171
     0
176
     1
290
     0
176
     1
 93
       13
176
     1
 44
0.0
176
     1
173
     0
176
     1
  0
VISUALSTYLE
  5
10035
102
{ACAD_REACTORS
330
10028
102
}
330
10028
100
AcDbVisualStyle
  2
Thicken
 70
    13
177
     2
291
     1
 71
     2
176
     1
 72
     2
176
     1
 73
     0
176
     1
 90
        0
176
     1
 40
-0.6
176
     1
 41
-30.0
176
     1
 62
     5
 63
     7
421
 16777215
176
     1
 74
     1
176
     1
 91
        4
176
     1
 64
     7
176
     1
 65
   257
176
     1
 75
     1
176
     1
175
     1
176
     1
 42
1.0
176
     1
 92
       12
176
     1
 66
     7
176
     1
 43
1.0
176
     1
 76
     1
176
     1
 77
     6
176
     1
 78
     2
176
     1
 67
     7
176
     1
 79
     5
176
     1
170
     0
176
     1
171
     0
176
     1
290
     0
176
     1
 93
        1
176
     1
 44
0.0
176
     1
173
     0
176
     1
  0
DICTIONARYVAR
  5
1004B
102
{ACAD_REACTORS
330
1004A
102
}
330
1004A
100
DictionaryVariables
280
     0
  1
1:1
  0
DICTIONARYVAR
  5
1004F
102
{ACAD_REACTORS
330
1004A
102
}
330
1004A
100
DictionaryVariables
280
     0
  1
Standard
  0
XRECORD
  5
1003F
102
{ACAD_REACTORS
330
1003E
102
}
330
1003E
100
AcDbXrecord
280
     1
 91
     1023
301

290
     0
302
0
330
50
 90
        8
 62
     7
370
    -3
331
16
  1
Color_7
330
51
 90
        8
 62
     7
370
    -3
331
16
  1
Color_7
  0
DICTIONARY
  5
10051
330
1003A
100
AcDbDictionary
280
     1
281
     1
  3
ACAD_ROUNDTRIP_2008_TABLESTYLE_CELLSTYLEMAP
360
10109
  0
CELLSTYLEMAP
  5
10109
102
{ACAD_REACTORS
330
10051
102
}
330
10051
100
AcDbCellStyleMap
 90
        3
300
CELLSTYLE
  1
TABLEFORMAT_BEGIN
 90
        5
170
     1
 91
        0
 92
    32768
 62
   257
 93
        1
300
CONTENTFORMAT
  1
CONTENTFORMAT_BEGIN
 90
        0
 91
        0
 92
        4
 93
        0
300

 40
0.0
140
1.0
 94
        5
 62
     0
340
11
144
6.0
309
CONTENTFORMAT_END
171
     1
301
MARGIN
  1
CELLMARGIN_BEGIN
 40
0.06
 40
0.06
 40
0.06
 40
0.06
 40
0.18
 40
0.18
309
CELLMARGIN_END
 94
        6
 95
        1
302
GRIDFORMAT
  1
GRIDFORMAT_BEGIN
 90
        0
 91
        1
 62
     0
 92
       -2
340
0
 93
        0
 40
0.045
309
GRIDFORMAT_END
 95
        2
302
GRIDFORMAT
  1
GRIDFORMAT_BEGIN
 90
        0
 91
        1
 62
     0
 92
       -2
340
0
 93
        0
 40
0.045
309
GRIDFORMAT_END
 95
        4
302
GRIDFORMAT
  1
GRIDFORMAT_BEGIN
 90
        0
 91
        1
 62
     0
 92
       -2
340
0
 93
        0
 40
0.045
309
GRIDFORMAT_END
 95
        8
302
GRIDFORMAT
  1
GRIDFORMAT_BEGIN
 90
        0
 91
        1
 62
     0
 92
       -2
340
0
 93
        0
 40
0.045
309
GRIDFORMAT_END
 95
       16
302
GRIDFORMAT
  1
GRIDFORMAT_BEGIN
 90
        0
 91
        1
 62
     0
 92
       -2
340
0
 93
        0
 40
0.045
309
GRIDFORMAT_END
 95
       32
302
GRIDFORMAT
  1
GRIDFORMAT_BEGIN
 90
        0
 91
        1
 62
     0
 92
       -2
340
0
 93
        0
 40
0.045
309
GRIDFORMAT_END
309
TABLEFORMAT_END
  1
CELLSTYLE_BEGIN
 90
        1
 91
        1
300
_TITLE
309
CELLSTYLE_END
300
CELLSTYLE
  1
TABLEFORMAT_BEGIN
 90
        5
170
     1
 91
        0
 92
        0
 62
   257
 93
        1
300
CONTENTFORMAT
  1
CONTENTFORMAT_BEGIN
 90
        0
 91
        0
 92
        4
 93
        0
300

 40
0.0
140
1.0
 94
        5
 62
     0
340
11
144
4.5
309
CONTENTFORMAT_END
171
     1
301
MARGIN
  1
CELLMARGIN_BEGIN
 40
0.06
 40
0.06
 40
0.06
 40
0.06
 40
0.18
 40
0.18
309
CELLMARGIN_END
 94
        6
 95
        1
302
GRIDFORMAT
  1
GRIDFORMAT_BEGIN
 90
        0
 91
        1
 62
     0
 92
       -2
340
0
 93
        0
 40
0.045
309
GRIDFORMAT_END
 95
        2
302
GRIDFORMAT
  1
GRIDFORMAT_BEGIN
 90
        0
 91
        1
 62
     0
 92
       -2
340
0
 93
        0
 40
0.045
309
GRIDFORMAT_END
 95
        4
302
GRIDFORMAT
  1
GRIDFORMAT_BEGIN
 90
        0
 91
        1
 62
     0
 92
       -2
340
0
 93
        0
 40
0.045
309
GRIDFORMAT_END
 95
        8
302
GRIDFORMAT
  1
GRIDFORMAT_BEGIN
 90
        0
 91
        1
 62
     0
 92
       -2
340
0
 93
        0
 40
0.045
309
GRIDFORMAT_END
 95
       16
302
GRIDFORMAT
  1
GRIDFORMAT_BEGIN
 90
        0
 91
        1
 62
     0
 92
       -2
340
0
 93
        0
 40
0.045
309
GRIDFORMAT_END
 95
       32
302
GRIDFORMAT
  1
GRIDFORMAT_BEGIN
 90
        0
 91
        1
 62
     0
 92
       -2
340
0
 93
        0
 40
0.045
309
GRIDFORMAT_END
309
TABLEFORMAT_END
  1
CELLSTYLE_BEGIN
 90
        2
 91
        1
300
_HEADER
309
CELLSTYLE_END
300
CELLSTYLE
  1
TABLEFORMAT_BEGIN
 90
        5
170
     1
 91
        0
 92
        0
 62
   257
 93
        1
300
CONTENTFORMAT
  1
CONTENTFORMAT_BEGIN
 90
        0
 91
        0
 92
        4
 93
        0
300

 40
0.0
140
1.0
 94
        2
 62
     0
340
11
144
4.5
309
CONTENTFORMAT_END
171
     1
301
MARGIN
  1
CELLMARGIN_BEGIN
 40
0.06
 40
0.06
 40
0.06
 40
0.06
 40
0.18
 40
0.18
309
CELLMARGIN_END
 94
        6
 95
        1
302
GRIDFORMAT
  1
GRIDFORMAT_BEGIN
 90
        0
 91
        1
 62
     0
 92
       -2
340
0
 93
        0
 40
0.045
309
GRIDFORMAT_END
 95
        2
302
GRIDFORMAT
  1
GRIDFORMAT_BEGIN
 90
        0
 91
        1
 62
     0
 92
       -2
340
0
 93
        0
 40
0.045
309
GRIDFORMAT_END
 95
        4
302
GRIDFORMAT
  1
GRIDFORMAT_BEGIN
 90
        0
 91
        1
 62
     0
 92
       -2
340
0
 93
        0
 40
0.045
309
GRIDFORMAT_END
 95
        8
302
GRIDFORMAT
  1
GRIDFORMAT_BEGIN
 90
        0
 91
        1
 62
     0
 92
       -2
340
0
 93
        0
 40
0.045
309
GRIDFORMAT_END
 95
       16
302
GRIDFORMAT
  1
GRIDFORMAT_BEGIN
 90
        0
 91
        1
 62
     0
 92
       -2
340
0
 93
        0
 40
0.045
309
GRIDFORMAT_END
 95
       32
302
GRIDFORMAT
  1
GRIDFORMAT_BEGIN
 90
        0
 91
        1
 62
     0
 92
       -2
340
0
 93
        0
 40
0.045
309
GRIDFORMAT_END
309
TABLEFORMAT_END
  1
CELLSTYLE_BEGIN
 90
        3
 91
        2
300
_DATA
309
CELLSTYLE_END
  0
ENDSEC
  0
EOF
